Hoobastank - Is This The Day Text Guitar Tab

Learn song with the online tabulature player
Strumming pattern is completely up to you, listen to the song to get it right
Tuning should be half-step up as it sounds on the record (Live at Atrium Studio), but I 
don't care. You might use the same tabs (not chords) with E# tuning if you want to.

Intro:

    Bm
e|--2-----2-----2-----2--|
B|--3-----2-----3-----2--|
G|--4-----4-----4-----4--|
D|--4-----4-----4-----4--|
A|--2-----2-----2-----2--|
E|-----------------------|


Verse I:

              Bm    A           Em               G  A           Bm     A
e|------------2-----0-----------0----------------3--0-----------2------0--------------|
B|------------3-----2-----------0----------------0--2-----------3------2--------------|
G|------------4-----2-----------0----------------0--2-----------4------2--------------|
D|------------4-----2-----------2----------------0--2-----------4------2--------------|
A|------------2-----0-----------2----------------2--0-----------2------0--------------|
E|------------------------------0----------------3------------------------------------|
  Is this the day?     My final curtain called.     What have I done?     Looking back

    Em          G     A         Bm      D               Em             G  A
e|--0-----------3-----0---------2-------2---------------0--------------3--0-----------|
B|--0-----------0-----2---------3-------3---------------0--------------0--2-----------|
G|--0-----------0-----2---------4-------2---------------0--------------0--2-----------|
D|--2-----------0-----2---------4-------0---------------2--------------0--2-----------|
A|--2-----------2-----0---------2-----------------------2--------------2--0-----------|
E|--0-----------3---------------------------------------0--------------3--------------|
    on it all.     So many have cried.     Out of love, out of faint.     Unsaid good-

    Bm      A              Abm   G  A
e|--2-------0--------------4-----3--0--|
B|--3-------2--------------4-----0--2--|
G|--4-------2--------------4-----0--2--|
D|--4-------2--------------6-----0--2--|
A|--2-------0--------------6-----2--0--|
E|-------------------------4-----3-----|
    bye's.     Is this the day?

Chorus:

        D                           A                              Bm
e|------2---------------------------0------------------------------2------------------|
B|------3---------------------------2------------------------------3------------------|
G|------2---------------------------2------------------------------4------------------|
D|------0---------------------------2------------------------------4------------------|
A|----------------------------------0------------------------------2------------------|
E|------------------------------------------------------------------------------------|
    And if it is, I'll be okay with letting go of everything. I'll leave it all behind

         Gm                    D                           A
e|-------3---------------------2---------------------------0--------------------------|
B|-------x--this-is-the--------3---------------------------2--------------------------|
G|-------0--way-he-plays-------2---------------------------2--------------------------|
D|-------0--it-live------------0---------------------------2--------------------------|
A|-------x--I-dunno-why------------------------------------0--------------------------|
E|-------3----------------------------------------------------------------------------|
    It's been quite a ride. So many laughs, so many tears. All my dreams and all my

               Bm                   G                   Gm
e|-------------2--------------------3-------------------3--|
B|-------------3--------------------0-------------------3--|
G|-------------4--------------------0-------------------3--|
D|-------------4--------------------0-------------------5--|
A|-------------2--------------------2-------------------5--|
E|----------------------------------3-------------------3--|
    fears will all get washed away, if this is the day


Verse II:
            Bm    A                    Em           G
Is this the day,     that I've been preparing for?

A           Bm       A                   Em            G
Mending the wounds,     that I should've done before.

    A          Bm     D              Em          G  A
And all of the love.     Love that I gave away.

           Bm                     A                          Abm
e|---------2----------------------0--------------------------4------------------------|
B|---------3----------------------2--------------------------4------------------------|
G|---------4----------------------2--------------------------4------------------------|
D|---------4----------------------2--------------------------6------------------------|
A|---------2----------------------0--------------------------6------------------------|
E|-----------------------------------------------------------4------------------------|
    Will I know what it's for? Is there something more? I'll find out if this is the


    G    A  G  A
e|--3----5--3--0--|
B|--3----5--3--2--|
G|--4----6--4--2--|
D|--5----7--5--2--|
A|--5----7--5--0--|
E|--3----4--3-----|
    day


Chorus


Bridge:


                Gbm                       Bm              G
e|--------------2-------------------------2---------------3---------------------------|
B|--------------2-------------------------3---------------0---------------------------|
G|--------------2-------------------------4---------------0---------------------------|
D|--------------4-------------------------4---------------0---------------------------|
A|--------------4-------------------------2---------------2---------------------------|
E|--------------2-----------------------------------------3---------------------------|
    Is this the day that I'll finally get answers? To the questions that I've had so


    D                     Gbm                     Bm            C
e|--5---------------------2-----------------------2-------------3---------------------|
B|--7---------------------2-----------------------3-------------3---------------------|
G|--7---------------------2-----------------------4-------------5---------------------|
D|--7---------------------4-----------------------4-------------5---------------------|
A|--5---------------------4-----------------------2-------------3---------------------|
E|------------------------2-----------------------------------------------------------|
    long. And is this the day that there'll be no tomorrow? For tomorrow I could be


              D                 A    Bm        G        D                 A
e|------------2-----------------0----2---------3--------2-----------------0-----------|
B|------------3-----------------2----3---------0--------3-----------------0-----------|
G|------------2-----------------2----4---------0--------2-----------------2-----------|
D|------------0-----------------2----4---------0--------0-----------------2-----------|
A|------------------------------0----2---------2--------------------------0-----------|
E|---------------------------------------------3--------------------------------------|
    gone. But you don't have to cry, I will be alright. You don't have to cry,


    Bm        C
e|--2---------0-----------------------------------------------------------------------|
B|--3---------1-----------------------------------------------------------------------|
G|--4---------0-I'm-not-sure----------------------------------------------------------|
D|--4---------2-about-this-one--------------------------------------------------------|
A|--2---------3-----------------------------------------------------------------------|
E|------------------------------------------------------------------------------------|
    I will be alright

Chorus:


        D                           A                              Bm
e|------2---------------------------0------------------------------2------------------|
B|------3---------------------------2------------------------------3------------------|
G|------2---------------------------2------------------------------4------------------|
D|------0---------------------------2------------------------------4------------------|
A|----------------------------------0------------------------------2------------------|
E|------------------------------------------------------------------------------------|
    And if it is, I'll be okay with letting go of everything. I'll leave it all behind


                 Gm            D                           A
e|---------------3-------------2---------------------------0--------------------------|
B|---------------x-------------3---------------------------2--------------------------|
G|---------------0-------------2---------------------------2--------------------------|
D|---------------0-------------0---------------------------2--------------------------|
A|---------------x-----------------------------------------0--------------------------|
E|---------------3--------------------------------------------------------------------|
    with no said goodbye's. So many laughs, so many tears. All my dreams and all my


               Bm                  C                                  D     A
e|-------------2-------------------0----------------------------------2-----0---------|
B|-------------3-------------------1----------------------------------3-----2---------|
G|-------------4-------------------0----------------------------------2-----2---------|
D|-------------4-------------------2----------------------------------0-----2---------|
A|-------------2-------------------3----------------------------------------0---------|
E|------------------------------------------------------------------------------------|
    fears will all get washed away if this is the day. If this is the day.


                   Bm    Gm       D      A    Bm      G  Gm
e|-----------------2-----3--------2------0----2-------3--3--|
B|-----------------3-----3--------3------2----3-------3--3--|
G|-----------------4-----3--------2------2----4-------4--3--|
D|-----------------4-----5--------0------2----4-------5--5--|
A|-----------------2-----5---------------0----2-------5--5--|
E|-----------------------3----------------------------3--3--|
    If this is the day.     Cause I will be alright.