Hoodoo Gurus - Whats My Scene Text Guitar Tab

Learn song with the online tabulature player
E|---------------|----------------|----------------|
B|---------------|----------------|----------------|
G|---------------|----------------|----------------|
D|---------------|----------------|----------------|
A|---------------|----------------|----------------|
E|---------------|----------------|----------------|

SONG   :What's my scene
ARTIST :Hoodoo Gurus
ALBUM  :Electric Soup
FROM   : Joe Rogers-Campbell

Ok I've looked for ages for a proper tab for this one and couldn't find it. So I just
to do it myself. This song sounds really good when you play it with someone else.
I tabbed this with the First and second guitar. I also put them in different sections.
(NOTE : You have to listen to the song to know where everything fits in)
Also look at the lyrics I put in to help you out.

p = pull off
h = hammer on
b = bend


(FIRST GUITAR)

     D      E     G
E|---2-0---2-0---2-0-2-0---0-|
B|---3-3---0-0---0-0-0-0-3-0-|
G|---2-2---1-1---0-0-0-0-0-0-|
D|-0-0-0---2-2---0-0-0-0-0-0-| Repeat this 2 times then PAUSE so the guy can sing "And
thing.."
A|---------2-2---2-2-2-2-2-2-|
E|-------0-0-0-3-3-3-3-3-3-3-|

As soon as he finishes singing "I've been wondering lately" you come back in but play this:

E|---------2-0-2-0---0-|
B|---------0-0-0-0-3-0-|
G|---------0-0-0-0-0-0-|
D|---------0-0-0-0-0-0-| x1
A|---------2-2-2-2-2-2-|
E|---3-3-3-3-3-3-3-3-3-|
      D     E     G
E|---2-0---2-0---2-0-2-0---0-|
B|---3-3---0-0---0-0-0-0-3-0-|
G|---2-2---1-1---0-0-0-0-0-0-|
D|-0-0-0---2-2---0-0-0-0-0-0-|  x6
A|---------2-2---2-2-2-2-2-2-|
E|-------0-0-0-3-3-3-3-3-3-3-|

After you play those it goes into the chorus where you PAUSE.


Right as soon as he finishes singing what's my scene, you come back in with this:
      D     E     G
E|---2-0---2-0---2-0-2-0---0-|
B|---3-3---0-0---0-0-0-0-3-0-|
G|---2-2---1-1---0-0-0-0-0-0-|
D|-0-0-0---2-2---0-0-0-0-0-0-| x7
A|---------2-2---2-2-2-2-2-2-|
E|-------0-0-0-3-3-3-3-3-3-3-|

Playing this this puts you into the chorus where he sings what's my scene again but this
after he sings "tell me I gotta know", you start up with this:
      D     E     G
E|---2-0---2-0---2-0-2-0---0-|
B|---3-3---0-0---0-0-0-0-3-0-|
G|---2-2---1-1---0-0-0-0-0-0-|
D|-0-0-0---2-2---0-0-0-0-0-0-| x2   You play this in time with the words. (E.g) -
my, what's my, what's my what's my scene?"
A|---------2-2---2-2-2-2-2-2-|
E|-------0-0-0-3-3-3-3-3-3-3-|


You pause when he sings this first paragraph of the 3rd verse (e.g) - "they say, they
the part "anyyday"
As soon as he finishes that you come in with the usual :
      D     E     G
E|---2-0---2-0---2-0-2-0---0-|
B|---3-3---0-0---0-0-0-0-3-0-|
G|---2-2---1-1---0-0-0-0-0-0-|
D|-0-0-0---2-2---0-0-0-0-0-0-| x9
A|---------2-2---2-2-2-2-2-2-|
E|-------0-0-0-3-3-3-3-3-3-3-|


REMEMBER to PAUSE when he comes in with the chorus of "what's my scene" and come back in
he starts in on the 2nd part (e.g) - "what's my, what's my, what's my what's my scene?"
shown before.
After you play this carry on through with the D,E,G to the very end of the song with NO
pauses and finally finish with this :

E|---2-2---------------------|
B|---3-3---------------------|
G|---2-----------------------|
D|-0-0-----------------------|
A|---------------------------|
E|---------------------------|

(SECOND GUITAR)
Ok the second guitar in this just basically strums chords and does all the main solos
throughout the song.
The solos sound really good in this song and you don't even have to have years of
to play them. Although it takes awhile to figure them out and fit them in with the first guitar.

After the first time through with the D,E,G on the first guitar at the very begining,the
guitar comes in with:

(Second guitar)
   D#1  D#2  D#3
E|-2----4----7--|  (The D played here goes higher)
B|-3----5----8--|
G|-2----4----7--|   D#1-is the normal D
D|--------------|   D#2-is the medium high D
A|--------------|   D#3-is the high D
E|--------------|

Now this is the part when you strum the chords :

(Intro)

(1st Verse)

(D)And another thing, I've been wondering (E)lately
Ah (G)baby, tell me where have you (D)been?
(D)Now the stage is set, where's my Juliet, (E)baby
Is it maybe? (G)my midsummer nights (D)dream

(CHORUS)

(G)What's my (A)scene (E)
(G)What's my (A)scene (E)
(G)What's my (A)scene (E)
(G)Tell me what's my scene (D)

Now quickly change into the solo :

(1st SOLO)

E|---------------|---------------14|-17-14-17-14----|
B|-----8---7-10-7|-10-7-------8----|-------------15-|
G|-7-9-----------|------9-7-9------|----------------|
D|---------------|-----------------|----------------|
A|---------------|-----------------|----------------|
E|---------------|-----------------|----------------|

Now you start strumming again

(2nd VERSE)

(D)Like a talent scout, always checking out (E)new blood
Oh I'd (G)do good, if you tell me your (D)game
(D)Playing solitaire, doesn't get me where you (E)would
And honey, (G)You could play any rules that you (D)name


(CHORUS)

(G)What's my (A)scene (E)
(G)What's my (A)scene (E)
(G)What's my (A)scene (E)
(G)Tell me what's my scene (D)
     (PAUSE)
Tell me I gotta know
     (Start again)
   D#1  D#2  D#3
E|-2----4----7--|
B|-3----5----8--|
G|-2----4----7--| x2   - Do this just like the start as he is singing "whats my, whats
whats my whats my scene?"
D|--------------|
A|--------------|
E|--------------|


                (3rd VERSE)

(A)They say, yeah they say, (G)making love they can (D)make you pay
(A)They say, yeah they say, (G)we know there's a (D)better way...anyday

Now quickly again change into the next solo :

(2nd SOLO)

E|---------------|----------------|----------------|-----------------|----------------|
B|---------------|----------------|----------------|-----------------|----------------|
G|---------------|-------------12-|-12--10b-------7|------7------7-9p|-7--------------|
D|-4-5-4-5-7-5-4-|-5--7--9--12-12-|-12-------7h-9--|-7h-9---7h-9-----|---9------------|
A|---------------|-------------10-|-10-------------|-----------------|----------------|
E|---------------|----------------|----------------|-----------------|----------------|

E|---------------|----------------|----------------|----------------|
B|---------------|---------------8|-7---10-8-7-7-10|-8-7-10-8-------|
G|-------9--12---|-12-12-11-9--7--|---9------------|----------------|
D|-9h-12----12---|----------------|----------------|----------------|
A|----------10---|----------------|----------------|----------------|
E|---------------|----------------|----------------|----------------|


E|---------------|----------------|----------------|
B|-8p-7p-5-8p-7p-|-5---7-8-10-15--|-14-15----15b---|
G|---------------|---7------------|-------14-----13|
D|---------------|----------------|----------------|
A|---------------|----------------|----------------|
E|---------------|----------------|----------------|


E|---------------|----------------|-19-17----------|
B|-15-15-14----15|-17-19-19-17----|----------------|
G|----------14---|-------------19-|----------------|
D|---------------|----------------|----------------|
A|---------------|----------------|----------------|
E|---------------|----------------|----------------|


(D)And another thing, I've been wondering (E)lately
Am I (G)crazy? to believe in (D)ideals?
(D)I'm a betting man but it's getting damn (E)lonely
Oh honey if (G)only, I was sure what I (D)feel


(G)What's my (A)scene (E)
(G)What's my (A)scene (E)
(G)What's my (A)scene (E)
(G)Tell me I gotta know (D)
       (PAUSE)
Tell me I gotta know
   (Start again)
   D#1  D#2  D#3
E|-2----4----7--|
B|-3----5----8--|
G|-2----4----7--| x4   - Do this just like the start as he is singing "whats my, whats
whats my whats my scene?"
D|--------------|
A|--------------|
E|--------------|

This is the hard part. Now change once again for the last solo


(3rd SOLO)


E|---------------|----------------|------14b--14---|-17P-15--------|----14----------|
B|---7-8--10--12p|-10-------------|----------------|--------17-15--|-17-------------|
G|-9-------------|----12-11h-12p--|-11-------------|---------------|----------------|
D|---------------|----------------|---12-----------|---------------|----------------|
A|---------------|----------------|----------------|---------------|----------------|
E|---------------|----------------|----------------|---------------|----------------|


E|-19-17-15----15|-17-15--14------|---14-14p-12----|---------------|
B|----------19---|----------------|15-----------15p|-12-15-12------|
G|---------------|------------14--|----------------|----------14---|
D|---------------|----------------|----------------|---------------|
A|---------------|----------------|----------------|---------------|
E|---------------|----------------|----------------|---------------|


E|---------------|-1-----1-----2----|-2---0---0---0h-|-2-----------|
B|--12h--15-15---|-0-----0-----3----|-3---3---3---3--|-------------|
G|---------------|-0-----0-----2----|-2---2---2---2--|-------------|
D|---------------|-0-----0-----0----|-0---0---0---0--|-------------|
A|---------------|-2-----2----------|----------------|-------------|
E|---------------|-3-----3----------|----------------|-------------|

(A)Whats my? (E)


(SONG)

       *1st Verse*
And another thing
I've been wondering lately
Ahh baby,
Tell me where have you been?
Now the stage is set where's my Juliet, baby?
Is it maybe
My midsummer nights dream?

       *Chorus*
What's my scene?
What's my scene?
What's my scene?
Tell me whats my scene?

       *2nd Verse*
Like a talent scout
Always checking out new blood
Oh, I'd do good
If you tell me your game
Playing solitaire
Doesn't get me where you would
And honey, You could play any rules that you name

       *Chorus*
What's my scene?
What's my scene?
What's my scene?
Tell me I gotta know
What's my?
What's my?
What's my,what's my scene?
What's my?
What's my?
What's my,what's my scene?

       *3rd Verse*
They say, yeah, they say
Making love, you can make it pay
They say, yeah, they say
But we know there's a better way
Anyday


And another thing
I've been wondering lately
Am I crazy?
To believe in ideals?
I'm a betting man
But it's getting damn lonely
Oh honey if only
I was sure what I feel

     *Chorus*
What's my scene?
What's my scene?
What's my scene?
Tell me I gotta know
What's my?
What's my?
What's my,what's my scene?
What's my?
What's my?
What's my,what's my scene?
What's my?
What's my?
What's my,what's my scene?
What's my?
What's my?
What's my,what's my scene?
Whats's my...?

-( JOE )-

._-**-END-**-_.