Hootie And The Blowfish - Tuckers Town Text Guitar Tab

Learn song with the online tabulature player
Artist: Hootie and the Blowfish
Album: Fairweather Johnson
Song: Tucker's Town
Tuning: Standard
Tabbed By: Little Debbie


Chords used: 
C (x32010) 
Csus4 (x33010)

|-------------------------------------------|
|-------------------------------1-----------|
|-----------0------------0---------0--------|
|-----0h2----------2h3----------------3-----|
|--3-----------3------------3---------------|
|-------------------------------------------|

|-------------------------------0-----------|
|----------------------------------1--------|
|-----------0------------0------------0-----|
|-----0h2----------2h3----------------------|
|--3-----------3------------3---------------|
|-------------------------------------------|

*Repeat*

This riff is played throughout the song.