Horrorpops - Where They Wander Text Guitar Tab

Learn song with the online tabulature player
Chorus
G|---------------------------------------------------------------------------|
D|---------------------------------------0-0-0-0-0-0-0-0---------------------|
A|-------------------3-3-3-3-3-3-3-3---------------------1-1-1-1-1-1-1-1-----|
E|1-1-1-1-1-1-1-1------------------------------------------------------------|

Verse repeat a couple of times
G|---------------------------------------------------------------------------|
D|-0-0-0-0-0-0-0-0-3-3-3-3-----------0-0-0-0-0-0-0-0-3-3-3-3-----------------|
A|-------------------------1-1-1-1--------------------------1-1-1-1----------|
E|---------------------------------------------------------------------------|

last part of verse before bridge
G|---------------------------------------------------------------------------|
D|-------------------------------------0-0-0-0-0-0-0-0-0-0-0-0-0-0-0-0-------|
A|-1-1-1-1-1-1-1-1-3-3-3-3-3-3-3-3-------------------------------------------|
E|---------------------------------------------------------------------------|

Bridge
G|---------------------------------------------------------------------------|
D|---------------------------------------------------------------------------|
A|-1-1-1-1-1-1-1-1-3-3-3-3-3-3-3-3-0-0-0-0-0-0-0-0-0-0-0-0-0-0-0-0-----------|
E|---------------------------------------------------------------------------|