Hot Chelle Rae - The Distance Text Guitar Tab

Learn the song with the online tablature player
The Distance-Hot Chelle Rae

e|--------------------------------------------------------------------------|
B|--------------------------------------------------------------------------|
G|--------------------------------------------------------------------------|
D|-12---12---11---7----12---12---11---7---12---12---11----7----12---12------|
A|---0----0----0----0----0----0----0----0----0----0----0----0----0----0-----|
E|--------------------------------------------------------------------------|

e|--------------------------------------------------------------------------|
B|--------------------------------------------------------------------------|
G|--------------------------------------------------------------------------|
D|-11---7-------------------------------------------------------------------|
A|---0----0-----------------------------------------------------------------|
E|--------------------------------------------------------------------------|

If you want to visit Hot Chelle Rae's website, you can go to: