Hot Hot Heat - Dirty Mouth Text Guitar Tab

Learn song with the online tabulature player
-------------------------------------------------------------------------------
                             Dirty Mouth - Hot Hot Heat
-------------------------------------------------------------------------------
Tabbed by: Daniel Nalepa
Email: guitarplayer200480@yahoo.com
Im the first person that ive seen in any tab site that writes down the strumming pattern.
I like to see how to strum the song instead of figuring it out myself, so I took the
liberty of writting down the strumming patterns for you. You can thank me later. So this
is my first song so e-mail with comments and please rate it. And dont go easy on me cuz
its my first time!
Tuning:Eadgbe

e|-2--2--2--2----------------------------2--2--2--2------2--2--2--2--2------|
B|-3--3--3--3--------2--2--2--2--2-------2--2--2--2------0--0--0--0--0------|
G|-4--4--4--4--------2--2--2--2--2-------2--2--2--2------2--2--2--2--2------|
D|-4--4--4--4--------2--2--2--2--2------------------------------------------|
A|-2--2--2--2---------------------------------------------------------------|
E|-2--2--2--2---------------------------------------------------------------|
   >  >  >  ^        ^  ^  >  >  ^       >  >  >  ^      ^  ^  >  >  ^
e|--3-----------------------------------------------------------------------|
B|--3-----------------2--2--2--2--2--2--------------------------------------|
G|--0-----------------2--2--2--2--2--2--------------------------------------|
D|--0---------2-------2--2--2--2--2--2--------------------------------------|
A---2---------2-------------------------------------------------------------|
E|--3-----------------------------------------------------------------------|
    >         >       >  >  >  ^  >  ^

Strumming Pattern Symbols

> Down
^ Up