House Of Heroes - If Text Guitar Tab

Learn song with the online tabulature player
Song: If
Artist: House of Heroes
Album: The End is Not the End
Tabbed By: Caleb M.

Chord Forms

e|-7-----------7---3-|
B|-8---7---12--7---3-|
G|-9---7---12--8---4-|
D|-9---7---12--9---5-|
A|-7---5---10--9---5-|
E|-------------7---3-|
   em  D   g   B   G

(Fill 1)
e|-------------|
B|-------------|
G|-------------|
D|-----5-----5-|
A|-5h7---5h7---|
E|-------------|

(Fill 2)
e|---------------|
B|---------------|
G|---------------|
D|-----5---------|
A|-5h7---7p5-----|
E|-----------7-0-|

(verse 1)

em
I could be in love,
       D                    g
if you wore that dress everyday
          B                     em
With your hair just so and your eyes are grey
              g         B         em
You'ld make a beautiful bird on a line,
  D                  g
a beautiful bride of Frankenstein,
  B                 em
a beautiful drop of iodine...
            g                 B                  em
If you were mine, If you were mine , If you were mine  

(verse 2)

em
I could be in love,
       D                 g
if the sun came out everyday
            B                   em
and set the sky on fire and the city grey.
       g            B         em
I'd be there at the drop if a dime...
            g                 B                  em
If you were mine, If you were mine , If you were mine  

(chorus)
G                                            B                     em  fill 1
If you were mine I'd tear the altar down of all that I've lost to romance.
G                                           B                   em
If you you were mine I'd risk my dignity if only to give love a chance.
D           G    B             em
If you were mine,I'd have the world.
D             G     B           em   fill 2
I'd have the world,if you were mine.

(verse 3) 

e|----------------------------------|
B|----------------------------------|
G|----------------------------------|
D|----------------------------------|
A|-----------------------9-9p10h9-7-|
E|-3-0-0-2/10-10-7-10-11------------|

I could be in love,
if the sirens sang everyday.
You draw me closer to destiny.
g         B              em   
Give us a smile meant to shine.
D                  g
Me and my bride of Frankenstein,
  B                   em
a beautiful bird on a line,
            g                 B                  em
If you were mine, If you were mine , If you were mine 
             g                B                  em  
would you be mine?                  would you be mine?

(chorus)
G                                            B                     em  fill 1
If you were mine I'd tear the altar down of all that I've lost to romance.
G                                           B                   em
If you you were mine I'd risk my dignity if only to give love a chance.
D           G    B             em
If you were mine,I'd have the world.
D             G     B           em   
I'd have the world,if you were mine.
D           G    B             em
If you were mine,I'd have the world.
D             G     B           em   
I'd have the world,if you were mine.

(Solo)

e|-----------------------------------------------------------|
B|-----------------------------------------------------------|
G|-----------------------------------------------------------|
D|-----------------------------------------------------------|
A|-7---5h7p5---5h7---5h7p5---5-------------------------7p6p5-|
E|---0-------7-----0-------7---7-0-5h7p5-0-5h7-0-5h6h7-------|

e|------------------------------------------------------------------|
B|------------------------------------------------------------------|
G|------------------------------------------------------------------|
D|------------------------------------------------------------------|
A|-7---5h7p5---5h7---5h7p5---5-------------7p6p5--------------0h1h2-|
E|---0-------7-----0-------7---7-0-5h7p5-0-------7p6p5--3h4h5-------|

e|-----------------------------------------------|
B|-----------------------------------------------|
G|-----------------------------------------7-8-9-|
D|-------------------------------9-5-7-8-9-7-8-9-|
A|-7---5h7p5---5h7---5h7p5---5---9-5-7-8-9-5-6-7-|
E|---0-------7-----0-------7---7-7-3-5-6-7-------|


B                              em
If you were mine, I'd have the world.
             B                  em
I'd have the world, if you were mine.
            D
If you were mine...
B                              em
If you were mine, I'd have the world.
             B                  em
I'd have the world, if you were mine.
            D
If you were mine...

(chorus) 

e|--------------------12--------------------|
B|--------------------12--------------------|
G|--------------------12--------------------|
D|--------------------12--------------------|
A|--------------------12--------------------|
E|-3-3-3-3/7-7-7-7/12-12-3-3-3-3/7-7-7-7/12-|
                      ^Harmonic

If you were mine I'd tear the altar down of all that I've lost to romance.

If you you were mine I'd risk my dignity if only to give love a chance.
D           G    B             em
If you were mine,I'd have the world.
D             G     B           em   
I'd have the world,if you were mine.
D           G    B             em
If you were mine,I'd have the world.
D             G     B           em   
I'd have the world,if you were mine.
D           G    B             em
If you were mine,I'd have the world.
D             G     B           em   
I'd have the world,if you were mine.
D           G    B             em
If you were mine,I'd have the world.
D             G     B           em   
I'd have the world,if you were mine.

End with fill 2