Howards Alias - End Text Guitar Tab

Learn song with the online tabulature player
Howards Alias - The End

Quality bristish ska-punk band who have taken a more serious edge to their music as of late

Tabbed by Luke Tandy
Any improvements to the tab will be gratefully received, as I'm not entirely sure about the bridge

Intro

  G#m	           C#m

E|--------------------------------||
B|----4-------4-------5------5----||
G|-----4-------4-----6-6----6-6---||
D|---6--6---6---6---6---6--6---6--|| 
A|--6------6-------4------4-------||
E|-4------4-----------------------||

Verse x 2

E|--------------------------------||
B|----4-------4-------5------5----||
G|-----4-------4-----6-6----6-6---||
D|---6--6---6---6---6---6--6---6--|| x3
A|--6------6-------4------4-------||
E|-4------4-----------------------||

  G#m	         C#m

E|--------------------------------||
B|----4------4-------5------5-----||
G|-----4------4-----6-6----6------||
D|---6--6---6--6---6---6--6-------|| 
A|--6------6------4------4---4-5--||
E|-4------4-----------------------||

  D#7		  G#m

E|--------------------------------||
B|----8------8------4------4------||
G|---6-6----6-6------4------------||
D|--8---8--8---8---6--6---6-------|| x2
A|-6------6-------6------6--4-5---||
E|---------------4------4---------||

  D#7		  G#m

E|--------------------------------||
B|----8------8------4------4------||
G|---6-6----6-6------4------4-----||
D|--8---8--8---8---6--6---6--6----|| 
A|-6------6-------6------6--------||
E|---------------4------4---------||

  E	       	 D#m

E|--------------------------------||
B|----9------9------8------8------||
G|---9-9----9-9----6-6----6-6-----||
D|--9---9--9---9--8---8--8---8----||
A|-7------7------6------6---------||
E|--------------------------------||

 
Bridge

  G#m	      C#m   D#7

E|--------------------------------||
B|-------------5-----8------------||
G|-4-----4-----6-----6------------||
D|-6-----6-----6-----8------------|| x2
A|-6-----6-----4-----6------------||
E|-4-----4------------------------||

 G#m G#/Bb B  C#m  C#m/B   D#7

E|---------------------------------||
B|-------------5-----------8---8---||
G|-4---6---8---6---6---6---6---6---||
D|-6---6---9---6---6---6---8---8---|| 
A|-6---6---9---4---6---6---6---6---||
E|-4---6---7-------6---6-----------||

  G#m	      C#m   D#7

E|--------------------------------||
B|-------------5-----8------------||
G|-4-----4-----6-----6------------||
D|-6-----6-----6-----8------------||
A|-6-----6-----4-----6------------||
E|-4-----4------------------------||

  B	 D#7   G#m   E

E|--------------------------------||
B|-------8-----------9------------||
G|-8-----6-----4-----9------------||
D|-9-----8-----6-----9------------||
A|-9-----6-----6-----7------------||
E|-7-----------4------------------||

  B	D#7   G#m    E  D#7

E|--------------------------------||
B|-------8-----------9---8--------||
G|-8-----6-----4-----9---6--------||
D|-9-----8-----6-----9---8--------||
A|-9-----6-----6-----7---6--------||
E|-7-----------4------------------||

  B	   D#7   G#m   E

E|--------------------------------||
B|-------8-----------9------------||
G|-8-----6-----4-----9------------||
D|-9-----8-----6-----9------------||
A|-9-----6-----6-----7------------||
E|-7-----------4------------------||

   E	 D#m

E|--------------------------------||
B|-------8------------------------||
G|-8-----6------------------------||
D|-9-----8------------------------||
A|-9-----6------------------------||
E|-7------------------------------||

Play Verse Again

End on G#m