Howie Day - Sunday Morning Song Text Guitar Tab

Learn song with the online tabulature player
This song isn't that hard to learn and once you have it down its a pretty fun song to 
Just make sure you know and have down all these basic chords first. Be able to hear chord 
in song or else it wont turn out right.

              (Intro)

  Am      D      G
-----------------3------3-----------|
-----------------3------3------6----|
-------------------------------4----|
-------------------------------0----|
-----------------2------2------x----|
-----------------3------0------4----|

  Em      G
------------------|
------------------|
------------------|
------------------|
------------------|
------------------|

  G      D/F#      Em      Am      D
----------2---------0--------------------|
----------3---------3--------------------|
----------2---------0--------------------|
----------0---------2--------------------|
----------0---------2--------------------|
----------2---------0--------------------|

(For the D/F# part, unlike anything you've
 ever heard, you must use your thumb.)

           (Choros)
  "wouldn't it be something"

   C
----------------------------|
---3------------------------|
---0------------------------|
---2---------------0--------|
---3------0--2--4-----------|
----------------------------|

   G
------------------------------|
------------------------------|
------------------------------|
-------------------0----------|
----------0--2--4-------------|
------------------------------|


  Am          D
------------------------------|
------------------------------|
------------------------------|
------------------------------|
------------------------------|
------------------------------|