Hujan - Kotak Hati Text Guitar Tab

Learn song with the online tabulature player
By ear and eye training.


1|-----------------------------------------------------------------------------|
2|---15~---15~---15~--17~-17b-15~--15~-\12--------15---------------------------|
3|--------------------------------------------15b----15p14-13~--12-------------|
4|-----------------------------------------------------------------------------|
5|-----------------------------------------------------------------------------|
6|-----------------------------------------------------------------------------|

1|----------------------------------------------------------------------------------------|
2|--15b--17b--19b--20b--20--15-19-15----15----15----15---------17-19b---19--18~~---21b----|
3|-----------------------------------19----------------17---19----------------------------|
4|-----------------------------------------19----17---------------------------------------|
5|----------------------------------------------------------------------------------------|
6|----------------------------------------------------------------------------------------|