Hujan - Obsesi Text Guitar Tab

Learn song with the online tabulature player
Kord Gitar dan Lirik Obsesi - Hujan
*use Rock Chords for all

BA!! BA!! BA!! OO!!!.....

Intro: B A D A x8 B F#

G]-----------------------------------]
D]-----------------------------------]
A]------5----------------------------]
E]-7-7-5--5-7------------------------]

          \7 free x-x-x-x-x-x---------]
G]------------------------------------]
D]------------------------------------]
A]------------------------------------]
E]-7-7-7-7-7-7-7-7-7-7----------------]

Verse #1 [FLAT B:]

G]-|-------------------|--------------]
D]-|--9-----------7----|--------------]
A]-|---7-[SLIDE]-9--9--|--------------]
E]-|7-----------------7|--------------]
Tak sabar ku tunggu hujung minggu
Ku saksikan kugiran kegemaranku
Melodikah yang selalu ku tunggu
Ku saksikan kugiran kegemaranku


                 Obsesi Obsesi!...
G]----------------------------------------]
D]----------------------------------------]
A]----------------------------------------]
E]--5-5-5-5-5-5-5-5-5-5-5-5-5-5-5---------]

Verse #
G]-----------------------------------]
D]-----------------------------------]
A]------5----------------------------]
E]-7-7-5--5-7------------------------]

          \7 free x-x-x-x-x-x---------]
G]------------------------------------]
D]------------------------------------]
A]------------------------------------]
E]-7-7-7-7-7-7-7-7-7-7----------------]

Verse # [FLAT B:]
G]-|-------------------|--------------]
D]-|--9-----------7----|--------------]
A]-|---7-[SLIDE]-9--9--|--------------]
E]-|7-----------------7|--------------]

Ku tunggu irama angkasa raya
Warna-warni pelbagai gaya
Di lantai dansa inilah oh tempatku
Ku saksikan kugiran kegemaranku


                  Obsesi obsesi!
G]----------------------------------------]
D]----------------------------------------]
A]----------------------------------------]
E]---5-5-5-5-5-5-5-5-5-5-5-5-5-5----------]

BADA XXxx
G]-----------------------------------]
D]-----------------------------------]
A]------5----------------------------]
E]-7-7-5--5-7--7-7-7-7-7-7-7-7-7-----]

VERSE ###3
B       D
Orang muda
  G              G# -A  -A#
Tak ada yang dapat di duga
B        D
Orang muda
 G               G# - A - A#
Masa depan di tangan mereka

C
Dah namanya muda
G#
Dah namanya muda
C
Dah namanya muda
G#
Akan mati juga

                Obsesi Obsesi!...
G]----------------------------------------]
D]----------------------------------------]
A]----------------------------------------]
E]---5-5-5-5-5-5-5-5-5-5-5-5-5-5----------]


Terima kasih!! kepada semua... Kalaw ada..apa-apa..hal..add Mysapce aq!!  (agak2 je 
lah kan.!!)

izzad_MZCL@yahoo.com [BASS]