Hurt - The Old Mission Text Guitar Tab

Learn song with the online tabulature player
-------------------------------------------------------------------------------
                             The Old Mission - Hurt
-------------------------------------------------------------------------------
Tabbed by:Tuddles
Email:alacilla@yahoo.com

Tuning:standard

The strumming is DDUU throughout the whole song

Verse:
      G                      Em
e|--------3-3---------3-3---------0-0---2----------------|
B|--------3-3---------3-3---------0-0---2----------------|
G|--------0-0---------0-0---------0-0---4----------------|
D|--0-0---------0-0---------2-2---------4----------------|
A|--2-2---------0-0---------2-2---------2----------------|
E|--3-3---------2-2---------0-0--------------------------|
    D D   U U   D D   U U   D D   U U   

     G                      Em
e|--------3-3---------3-3---------0-0--------------------|
B|--------3-3---------3-3---------0-0--------------------|
G|--------0-0---------0-0---------0-0--------------------|
D|--0-0---------0-0---------2-2--------------------------|
A|--2-2---------0-0---------2-2--------------------------|
E|--3-3---------2-2---------0-0--------------------------|
      G                      Em
e|--------3-3---------3-3---------0-0---2----------------|
B|--------3-3---------3-3---------0-0---2----------------|
G|--------0-0---------0-0---------0-0---4----------------|
D|--0-0---------0-0---------2-2---------4----------------|
A|--2-2---------0-0---------2-2---------2----------------|
E|--3-3---------2-2---------0-0--------------------------|

      C
e|--------0-0---------0-0---0----------------|
B|--------1-1---------1-1---1----------------|
G|--------0-0---------0-0---0----------------|
D|--2-2---------2-2---------2----------------|
A|--3-3---------3-3---------3----------------|
E|--0-0---------0-0--------------------------|

Chorus:
      C                       Em                    C       
e|---------0-0---------0-0---------0-0---------0-0--------0-0---------0-0-|
B|---------1-1---------1-1---------0-0---------0-0--------1-1---------1-1-|
G|---------0-0---------0-0---------0-0---------0-0--------0-0---------0-0-|
D|---2-2---------2-2---------2-2---------2-2--------2-2---------2-2-------|
A|---3-3---------3-3---------2-2---------2-2--------3-3---------3-3-------|
E|---0-0---------0-0---------0-0---------0-0--------0-0---------0-0-------|

     G                        C                     G            
e|--------3-3---------3-3---------0-0---------0-0---------3-3---------3-3-|
B|--------3-3---------3-3---------1-1---------1-1---------3-3---------3-3-|
G|--------0-0---------0-0---------0-0---------0-0---------0-0---------0-0-|
D|--0-0---------0-0---------2-2---------2-2---------0-0---------0-0-------|
A|--2-2---------0-0---------3-3---------3-3---------2-2---------0-0-------|
E|--3-3---------2-2---------0-0---------0-0---------3-3---------2-2-------|

    Em
e|--0--------|
B|--0--------|
G|--0--------|
D|--2--------|
A|--2--------|
E|--0--------|

The last chorus is a little different. It goes like this:
      C                       G                      C       
e|---------0-0---------0-0---------3-3---------3-3---------0-0---------0-0-|
B|---------1-1---------1-1---------3-3---------3-3---------1-1---------1-1-|
G|---------0-0---------0-0---------0-0---------0-0---------0-0---------0-0-|
D|---2-2---------2-2---------0-0---------0-0---------2-2---------2-2-------|
A|---3-3---------3-3---------2-2---------2-2---------3-3---------3-3-------|
E|---0-0---------0-0---------3-3---------3-3---------0-0---------0-0-------|

     G                        C                     G            
e|--------3-3---------3-3---------0-0---------0-0---------3-3---------3-3-|
B|--------3-3---------3-3---------1-1---------1-1---------3-3---------3-3-|
G|--------0-0---------0-0---------0-0---------0-0---------0-0---------0-0-|
D|--0-0---------0-0---------2-2---------2-2---------0-0---------0-0-------|
A|--2-2---------0-0---------3-3---------3-3---------2-2---------0-0-------|
E|--3-3---------2-2---------0-0---------0-0---------3-3---------2-2-------|

    Em
e|--0--------|
B|--0--------|
G|--0--------|
D|--2--------|
A|--2--------|
E|--0--------|