Husker Du - Books About Ufos Text Guitar Tab

Learn song with the online tabulature player
intro & verse & "sometimes I see her..."/ repeat as in the song...

G|--------|--------|5-5-----|7-7---0-|--------|--------|
D|------5-|--------|--------|----3---|------5-|--------|
A|3-------|3-------|----7-7-|--------|3-------|3----02-|  
E|--------|--------|--------|--------|--------|--------|


chorus / repeat as in the song

G|--------|--------|--------|--------|
D|--------|----5-7-|------5-|--------|
A|--------|5-7-----|3-------|3----02-|  
E|3---3---|--------|--------|--------|

Tab by Dima vili_vili_vo (my first tab ^^)