I Can Make A Mess Like Nobodys Business - Whispering Actually Text Guitar Tab

Learn song with the online tabulature player
Artist: I can make a mess like nobody's business
Track: Whispering Actually
Album: I can make a mess like nobody's business

Main Riff:

G -----------------------------------------|
D --2-2-2-2--2-2-2-2-----------------------|
A --------------------8-8-8-8--8-8-8-8-----|
E -----------------------------------------|

G -----------------------------------------|
D -----------------------------------------|
A --5-5-5-5--5-5-5-5-----------------------|
E --------------------7-7-7-7--7-7-7-7-----|

This is repeated throughout the song and is accompanied by synth and strings!