I See Stars - Your Love Text Guitar Tab

Learn song with the online tabulature player
-------------------------------------------------------------------------------
                             YOUR LOVE – I See Stars
-------------------------------------------------------------------------------

 Original song by The Outfield. this song is on Punk Goes Classic Rock

|--------------------------------------------------|
|--------------------------------------------------|
|-9-9-9-9-9-9-9-9-6-6-6-6-6-6-6-6-4-4-4-4-4-4-4-4--|
|--------------------------------------------------| (2x)
|--------------------------------------------------|
|--------------------------------------------------|

 CHORUS
|--------------------------------------------------------------------------|
|--------------------------------------------------------------------------|
|--------------------------------------------------------------------------|
|-2222222-6666-6-4444444444444-4-6666666-2222-2-4444444444444-4------------|
|-0000000-4444-4-2222222222222-2-4444444-0000-0-2222222222222-2------------|
|--------------------------------------------------------------------------|
   .. ..   ..     .. .. .. ..     .. ..   ..     .. .. .. ..

 VERSE 1
|------------------------------------|
|------------------------------------|
|------------------------------------|
|-9999999-6666-6-4444444444444-4-----|
|-7777777-4444-4-2222222222222-2-----| (2x)
|------------------------------------|
   .. ..   ..     .. .. .. ..

 Repeat CHORUS without mutes

 VERSE 2
|------------------------------------------------------------|
|-------------------3333----------------------3333-----------|
|-------------------6666--(2x)----------------6666-----------|
|-12//-----------------------------------------------(2x)----| (2x)
|-12//--2222--2222-------------------------------------------|
|-12//--2222--2222-------------2222-2-2-2-2-2----------------|
        ....  ....

 Repeat VERSE 1

 CHORUS 3
|--------------------------------------------------------------------------|
|--------------------------------------------------------------------------|
|--------------------------------------------------------------------------|
|-22-22-2-6-66-6-4444444444444-4-66-66-6-2-22-2-4444444444444-4------------|
|-00-00-0-4-44-4-2222222222222-2—44-44-4-0-00-0-2222222222222-2------------|
|--------------------------------------------------------------------------|
                  .. .. .. ..                    .. .. .. ..
|-------------------------------------|
|-------------------------------------|
|-------------------------------------|
|-66666666222222224444444444444444----| keep repeating this until the end
|-44444444000000002222222222222222----|
|-------------------------------------|

|-----------------------------------------------------------|
|-----------------------------------------------------------|
|-21~-18~-16-18-16-------------21~-18~-16-18-16-------------|   this solo is
|------------------19-18~-16~-------------------19-18~-21~--|=== played on 
|-----------------------------------------------------------|   synth but i  
|-----------------------------------------------------------|  transferred it


************************************

| /   slide 
| .   Mute note
| ~   vibrato
************************************