Ian Brown - Golden Gaze Text Guitar Tab

Learn song with the online tabulature player
NOTE: this tab sounds pretty similar although in the song the notes are not quite clear, 
this a try, i think it works pretty well with the opening of the song and only takes a 
minutes to learn.

E----------------------------0----------------------------------------|
B------------0-------------------------------0------------------------|
G------8-------------8----------------8--------------8----------------|
D---------9--------------9---------------9---------------9------------|
A---------------------------------------------------------------------|
E---7------------7----------------7--------------7--------------------|

E-----------------------------0---------------------------------------|
B--------------0--------------------------------0---------------------|
G------9-------------9----------------9---------------9---------------|
D---------10-----------10---------------10---------------10-----------|
A---------------------------------------------------------------------|
E---8------------8----------------8---------------8-------------------|

E----------------------------0----------------------------------------|
B------------0-------------------------------0------------------------|
G------6-------------6----------------6--------------6----------------|
D---------7--------------7---------------7---------------7------------|
A---------------------------------------------------------------------|
E---5------------5----------------5--------------5--------------------|

E----------------------------0----------------------------------------|
B------------0-------------------------------0------------------------|
G------6-------------6----------------6--------------6----------------|
D---------7--------------7---------------7---------------7------------|
A---------------------------------------------------------------------|
E---5------------5----------------5--------------5--------------------|

Any problems/questions:
email me at joshelliott@hotmail.co.uk