Ian Moore - Magdalena Text Guitar Tab

Learn the song with the online tablature player
:--3--3--0--0--0-|  chords used
:--3--3--0--1--1-|
:--4--0--1--2--0-|
:--5--4--2--2--2-|
:--5--x--2-----3-|
:--x--x--0-----x-|

intro/verse:          verse kicks in listen to the song for timing

:--3-------------------3-----3-----0--------------:
:--3-------------------3-----3-----0--------------:
:--4--play about 12x---4--7x-0--7x-1--bout 12x----:
:--5-------------------5-----4-----2--------------:
:--5-------------------5-----x-----2--------------:
:--x-------------------x-----x-----0--------------:

2nd time play add this litte number after the E

:----------------------:
:----------------------:
:----------------------:
:----------------------:
:----------------2-2---:
:--0-0--2-2--3-3-------:

Bridge
:-------0-------------------0--------------|
:--------1--------------------1------------|
:----2------repeat-2x------------repeat----|2x
:--2----------------------2----------------|
:-----------------------2------------------|
:------------------------------------------|

Chorus
:--0-----0-----:              :----------------------0------0----0---:
:--1-----1-----:              :------------------------0------0----0-:
:--0--9x-2--9x-:play 2x then  :--1/3--3/1--1/3--3/12-----11-----9----:
:--2-----2-----:              :--------------------------------------:
:--3-----------:              :--------------------------------------:
:--x-----------:              :--------------------------------------:

:----0----------:
:------0--------:
:--5------5--3--:
:---------------:
:---------------:
:---------------:  Thats pretty much it listen to the song to get the timing down pretty
its right tho..if you have any corrections please help me we need some more ian songs
here im working on satisfied the whole song not just the chords...lol..later    Stu