Ice And The Iced - Weve Had Enough Text Guitar Tab

Learn song with the online tabulature player
Intro

G-----------------------------------------|
D-----------------------------------------| 
A-3-3-333---------------------------------|  x2 
E--------3-3-333--5-5-555---11111---------|


G-----------------------------------------|
D-----------------------------------------| 
A-303-33----------------------------------|   
E-------303-33---505-55-----101-1111111---|
 
Verse

G----------------------------------------|
D----------------------------------------|
A-3-3-333--------------------------------|   
E--------3-3-333--5-5-555--1-1-11--------|   

Chorus

G----------------------------------------|
D----------------------------------------|
A-3-3-333--------------------------------|   
E--------3-3-333--5-5-555--1-1-1111111---|   

Bridge a)

G---------------|
D---------------|
A-3-------------|   
E-----5-----1---|    


G-------------------|
D-------------------|
A-------------------|   x2
E-5-555555-1-111111-|


G--------------|
D--------------|
A-----------3--|   x2
E-3-33-33-33---|


G-----------------|
D-----------------|
A-----------------|   
E-3-33-33-33--5-1-|

Bridge b)  

G-------------------|
D-------------------|
A-------------------|   x3
E-5-555555-1-111111-|


G--------------|
D--------------|
A-----------3--|   x2
E-3-33-33-33---|


G-----------------|
D-----------------|
A-----------------|   x3
E-3-33-33-33--5-1-|

Outro

G-----------------------------------------|
D-----------------------------------------|
A-3-3-333-------------------------------3-|   
E--------3-3-333-5-5-555-1-1-1-1-1-1-1-1--|

order of the song:

intro
verse
chorus
bridge a)
verse
chorus
bridge a)
verse
chorus
bridge b)
chorus
outro

enjoy! sorry if anything's wrong