Ice Nine Kills - What I Really Learned In Study Hall Text Guitar Tab

Learn song with the online tabulature player
artist:ice nine kills
song:what i really learned in study hall

i think this almost 100% correct
drop d tuning

verse: figure out strumming
e---------------------------|
b---------------------------|
g--4-----------11---9-------|
d--4---4---6---11---9-------|
a--2---4---6---9----7-------|
D------4---6----------------|

pre-chorus: figure out strumming
e-------------------|
b-------------------|
g-----------6-------|
d---6---2---6---4---|
a---6---2---4---4---|
D---6---2-------4---|

chorus: figure out strumming
e----------------------|
b----------------------|
g--4-------6-----------|
d--4---4---6---2---4---|
a--2---4---4---2---4---|
D------4-------2---4---|

post chorus: its not what they play but it sounds good
e----------------------------------------|
b----------------------------------------|
g--4-4--4-4/66/44-------99999-1111111111-|
d--x-x--x-x/xx/xx-6666--xxxxx-x-x-x-x-x--|
a--2-2--2-2/44/22-6666--77777-9-9-9-9-9--|
D-----------------6666-------------------|

verse

pre-chorus:
e-------------|
b-------------|
g-------4-----|
d1--2---4--4--|
a1--2---2--4--|
D1--2------4--|

e-----------------------|
b-----------------------|
g---4----4----4----4----|
d--4-4--4-4--4-4--4-4---|
a-2---------2-----------|
D------2---------2------|

e-------------
b-------------
g-------------
d4444444444444
a4444444444444
D4444444444444
pm************

chorus 

this song kicks ass