Ida - Idas Sommarvisa Text Guitar Tab

Learn song with the online tabulature player
this is the easy way to learn this song!



   E-----------0-2-3-2-0------------0--------------------------------------E
   B---3-3-3-3-----------3-2-2-2-2-3--3------------------------------------B
   G--2--------------------------------------------------------------------G
   D-----------------------------------------------------------------------D
   A-----------------------------------------------------------------------A
   E-----------------------------------------------------------------------E

   E-----------0-2-3-2-0------------0--------------------------------------E
   B---3-3-3-3-----------3-2-2-2-2-3--3------------------------------------B
   G--2--------------------------------------------------------------------G
   D-----------------------------------------------------------------------D
   A-----------------------------------------------------------------------A
   E-----------------------------------------------------------------------E

   E--2-5-2-2-5-2-2-3-5-7-----------6-4-2-0--------0-2-3-2-0------------0--E
   B----------------------8-6-6-6-6---------3-3-3-3----------3-2-2-2-2-3--3
   G-----------------------------------------------------------------------G
   D-----------------------------------------------------------------------D
   A-----------------------------------------------------------------------A
   E-----------------------------------------------------------------------E

                                                             //power pekka:)