Identity - Just Another Love Song Text Guitar Tab

Learn song with the online tabulature player
Hey me name is Brandon Hopkins and this song kicks ass! wanna make a shout out to Jordan 
Mindy H, Brandon K, Izaak W, Cody N, Wood, Ashley H, Mark M and all my other homies

INTRO
-----------------------------------------------------------------|
44-44-44-44-444-00-00-00-00-000-77-77-77-77-777-22-22-22-22-222--| 2x
-----------------------------------------------------------------|
-----------------------------------------------------------------|
verse
-------------------------------------|
44444444-00000000-77777777-22222222--| 4x
-------------------------------------|
-------------------------------------|
course
---------77--77----------55--55------|
-44--44----------77--77--------------|
-------------------------------------|
-------------------------------------|
                                       2x
-----------77777777----------00000000-|
--44444444----------77777777----------|
--------------------------------------|
--------------------------------------|

-----------------------------------------------------------------|
44-44-44-44-444-00-00-00-00-000-77-77-77-77-777-22-22-22-22-222--| 2x
-----------------------------------------------------------------|
-----------------------------------------------------------------|

verse
-------------------------------------|
44444444-00000000-77777777-22222222--| 4x
-------------------------------------|
-------------------------------------|

course
---------77--77----------55--55------|
-44--44----------77--77--------------|
-------------------------------------|
-------------------------------------|
                                       2x
-----------77777777----------00000000-|
--44444444----------77777777----------|
--------------------------------------|
--------------------------------------|

ending
33--33--33-------------------------------|
-----------55-55-55--77-77-77--33-33-33--|
-----------------------------------------| 6x
-----------------------------------------|