Idlewild - Love Steals Us From Loneliness Text Guitar Tab

Learn the song with the online tablature player
Intro
Guitar 1

e:---------------------------------------------------------:
b:---------------------------------------------------------:
g:---------------------------------------------------------:
d:-8-8-8-8-8-8-8-8-8-8-8-8-8-8-6-6-6-6-6-6-6-6-6-6-6-6-6-6-:
a:-6-6-6-6-6-6-6-6-6-6-6-6-6-6-4-4-4-4-4-4-4-4-4-4-4-4-4-4-:
E:-6-6-6-6-6-6-6-6-6-6-6-6-6-6-4-4-4-4-4-4-4-4-4-4-4-4-4-4-:

Intro Guitar 2

e:---------------------------------------------------------------------:
b:---------------------------------------------------------------------:
g:-8-8-8-8-8-8-8-10-11-11-11-10-10-10-8-8-6-6-6-6-6-6-6-6-6-8-10-8-6-8-:
d:-x-x-x-x-x-x-x--x--x--x--x--x--x--x-x-x-x-x-x-x-x-x-x-x-x-x-x--x-x-x-:
a:-6-6-6-6-6-6-6--8--9--9--9--8--8--8-6-6-4-4-4-4-4-4-4-4-4-6-8--6-4-6-:
E:---------------------------------------------------------------------:

Verse

"Every step takes a beat..."

e:---------------------------------:
b:---------------------------------:
g:-8-8-8-8-8-8-8-8/6-6-6-6-6-6-6-6-:
d:-8-8-8-8-8-8-8-8/6-6-6-6-6-6-6-6-:   x3
a:-6-6-6-6-6-6-6-6/4-4-4-4-4-4-4-4-:
E:---------------------------------:

Chorus

"You said something..."

e:-----------------------------------------------------------------:
b:-----------------------------------------------------------------:
g:---------------------------------6-6-6-6-6-6-6-6-----------------:
d:-8-8-8-8-8-8-8-8-4-4-4-4-4-4-4-4-6-6-6-6-6-6-6-6-8-8-8/6-6-6-6-6-:  x2
a:-6-6-6-6-6-6-6-6-4-4-4-4-4-4-4-4-4-4-4-4-4-4-4-4-8-8-8/6-6-6-6-6-:
E:-6-6-6-6-6-6-6-6-2-2-2-2-2-2-2-2-----------------6-6-6/4-4-4-4-4-:

Bridge is the same as the Intro part
Then back to the Final Chorus...