Idlewild - No Emotion Text Guitar Tab

Learn song with the online tabulature player
iDLEWiLD - No Emotion
Album: Make Another World
Guitarists: Rod Jones & Allan Stewart

This song would've been recorded down a semitone as it makes the fret positioning a lot
but if you can't be bothered tuning down, it's easily transposed into standard tuning.
is an AWESOME, fun song to play... can see why they play this at pretty much every one 
their live shows! Enjoy.

Intro/Chorus

eb |-----------------------------------------------------------------------|
Bb |-----------------------------------------------------------------------|
Gb |------9h11-9------9h11--9-9----------------9h11-9------9---------------|
Db |---11----------11-------------11-9-11---11----------11----12--11--9-11-|
Ab |-----------------------------------------------------------------------|
Eb |-----------------------------------------------------------------------|

Verse 1

eb |-------14--------------------14--------------------14------------------------|
Bb |----12---------12-14------12---------12-14------12-------12-14-12-10h12-9----|
Gb |-11---------11---------11---------11---------11-------11------------------11-|
Db |-----------------------------------------------------------------------------|
Ab |-----------------------------------------------------------------------------|
Eb |-----------------------------------------------------------------------------|

eb |-------14--------------------14--------------------14---------------------|
Bb |----12---------12-14------12---------12-14------12-------12-14-12-10h12-9-|
Gb |-11---------11---------11---------11---------11-------11------------------|
Db |--------------------------------------------------------------------------|
Ab |--------------------------------------------------------------------------|
Eb |--------------------------------------------------------------------------|

Pre-Chorus 1

eb |-------------------------------------------------------------------------------|
Bb |---------------------10--------------------------------------------------------|
Gb |-11---9-11-9-11-9-11------11-11-11-11-9-11--s13-11-13-11-13-11-13-14---13-11-9-|
Db |-------------------------------------------------------------------------------|
Ab |-------------------------------------------------------------------------------|
Eb |-------------------------------------------------------------------------------|


eb |------------------------------------------------------------------------------|
Bb |---------------------10---------10---------9------9-12-9-12-9-12-10-9---------|
Gb |-11---9-11-9-11-9-11------11-11----11---11-----11---------------------11-9-11-|
Db |------------------------------------------------------------------------------|
Ab |------------------------------------------------------------------------------|
Eb |------------------------------------------------------------------------------|

Verse 2

    w/delay - - - - - - - - - - - - - - - - - - - - - - ¬  Delay off
eb |-----------------------------------------------------||---------------------|
Bb |-------------------14---14-------------------------9-||---------------------|
Gb |----------11---------------11---11---9---11---9-11---||-11-13-14-13-11-9-11-|
Db |-11--------------------------------------------------||---------------------|
Ab |-----------------------------------------------------||---------------------|
Eb |-----------------------------------------------------||---------------------|

Pre Chorus 2

eb |-------14--------------------14--------------------14------------------------|
Bb |----12---------12-14------12---------12-14------12-------12-14-12-10h12-9----|
Gb |-11---------11---------11---------11---------11-------11------------------11-|
Db |-----------------------------------------------------------------------------|
Ab |-----------------------------------------------------------------------------|
Eb |-----------------------------------------------------------------------------|

eb |-------14--------------------14--------------------14---------------------------|
Bb |----12---------12-14------12---------12-14------12-------12-14-14-12-10-12-9----|
Gb |-11---------11---------11---------11---------11-------11---------------------11-|
Db |--------------------------------------------------------------------------------|
Ab |--------------------------------------------------------------------------------|
Eb |--------------------------------------------------------------------------------|

Solo

eb |------------------------------------------9-------------------------------------|
Bb |---------------------12-------------------------------------12--10--9-9h10p9----|
Gb |-11---9-11-9-11-9-11------11-11-9-11-9-11---11-11-9-11-9-11------------------11-|
Db |--------------------------------------------------------------------------------|
Ab |--------------------------------------------------------------------------------|
Eb |--------------------------------------------------------------------------------|

eb |------------------------------------------9-------------------------------------|
Bb |---------------------12-------------------------------------12--10--9-9h10p9----|
Gb |-11---9-11-9-11-9-11------11-11-9-11-9-11---11-11-9-11-9-11------------------11-|
Db |--------------------------------------------------------------------------------|
Ab |--------------------------------------------------------------------------------|
Eb |--------------------------------------------------------------------------------|

                                                                 *
eb |------------------------------------------9-------------------------------------|
Bb |---------------------12-------------------------------------12------------------|
Gb |-11---9-11-9-11-9-11------11-11-9-11-9-11---11-11-9-11-9-11---------------------|
Db |----------------------------------------------------------------------x-x-x-x-x-|
Ab |----------------------------------------------------------------------x-x-x-x-x-|
Eb |----------------------------------------------------------------------x-x-x-x-x-|

*Hold note whilst playing muted strings at end of bar.
Those two parts were probably played by 2 different guitars on the original recording,
but can easily be played on one guitar at the same time.

Outro solo

eb |------------------------9---------------------------------------------------------|
Bb |---------------------10---10--------------------------------------9---------------|
Gb |------9h11-9----9-11---------9h11-9-9------9----9------11-9----11---11----9-------|
Db |-9h11--------11-------------------------11---11-----11----------------------12-11-|
Ab |----------------------------------------------------------------------------------|
Eb |----------------------------------------------------------------------------------|

eb |------------------------9---------------------------------------------------------|
Bb |---------------------10---10--------------------------------------9---------------|
Gb |------9h11-9----9-11---------9h11-9-9------9----9------11-9----11---11----9-------|
Db |-9h11--------11-------------------------11---11-----11----------------------12-11-|
Ab |----------------------------------------------------------------------------------|
Eb |----------------------------------------------------------------------------------|

eb |---------------|
Bb |---------------|
Gb |---------------|
Db |-7-7---4-------|
Ab |-7-7---4-------|
Eb |-5-5-0-2-------|

Song structure

Intro/chorus x 2
Verse 1
Pre Chorus 1
Intro/chorus x 2
Verse 2
Pre Chorus 2
Intro/chorus x 4
Solo
Intro/chorus x 2
Outro solo