Imagine Dragons - Radioactive Text Guitar Tab

Learn song with the online tabulature player
Radioactive by Imagine Dragons



Tuning: Lead-Drop D
        Acoustic-Standard
        Backing-Drop D




CHORUS LEAD GUITAR COMING SOON!!!
   


   INTRO

   Lead Guitar
E|-------------------------------------------------|
B|--------15----17----19--17------15-----17b15-----|
G|--161416--1416--1416--14--161416---1416-----1416-|  X3
D|-------------------------------------------------|
A|-------------------------------------------------|
D|-------------------------------------------------|

  
     Acoustic
     (Capo 2)
   Am  C   G   D
E|---------3---2-|
B|-1---1-------3-|
G|-2-----------2-|  X3 
D|-2---2---------|
A|-----3---2-----|
E|---------3-----|

   VERSE 

   Backing Guitar (optional)
   (to the beat of the bass)

E|------------------------------|
B|------------------------------|
G|------------------------------|
D|------------------------------|
A|------------------------------|
D|-9999-1212121212-77-7-2222222-|


  Lead Guitar
  
E|--------------------------------|
B|-12p10h121012-------------------|
G|-------------11b11911-----------|  X2
D|---------------------11b1112119-|
A|--------------------------------|
D|--------------------------------|

       CHORUS
   Backing Guitar (optional)
   
E|-------------------------|
B|-------------------------|
G|-------------------------|  X4
D|-9999-12121212-7777-2222-|
A|-9999-12121212-7777-2222-|
D|-9999-12121212-7777-2222-|



 Backing Guitar (optional)
   (to the beat of the bass)

E|------------------------------|
B|------------------------------|
G|------------------------------|
D|------------------------------|
A|------------------------------|
D|-9999-1212121212-77-7-2222222-|


  Lead Guitar
  
E|--------------------------------|
B|-12p10h121012-------------------|
G|-------------11b11911-----------|  X2
D|---------------------11b1112119-|
A|--------------------------------|
D|--------------------------------|


       CHORUS
   Backing Guitar (optional)
   
E|-------------------------|
B|-------------------------|
G|-------------------------|  X4
D|-9999-12121212-7777-2222-|
A|-9999-12121212-7777-2222-|
D|-9999-12121212-7777-2222-|

 


   BRIDGE

   Acoustic (optional)
   (Capo 2)


   Am  C   G   D
E|---------3---2-|        ~Can be each strummed just once our each note picked individually for  
B|-1---1-------3-|         all 4 chords~
G|-2-----------2-|  X2           
D|-2---2---------|
A|-----3---2-----|
E|---------3-----|




   CHORUS
   Backing Guitar (optional)
   
E|-------------------------|
B|-------------------------|
G|-------------------------|  X4
D|-9999-12121212-7777-2222-|
A|-9999-12121212-7777-2222-|
D|-9999-12121212-7777-2222-|

 This has the live version and track notes mixed together so its not perfectly 
matched to the song but the base is both the same so you can mess around with it 
to make it work. I added a couple extra things in there to :)