Imago - Tara Lets Text Guitar Tab

Learn song with the online tabulature player
Band/Artist: Imago
Song Title: Taralets
Tuning: Standard EADG
Tabbed by: thunderscreem

Listen to the song for you to know all the thing(timing, etc.) you need before using the tab..

Intro (Intro will only be played by the Guitar 1)

Verse I

G|--------------------------------------|
D|--------------------------------------| 2x
A|--5555555555555555--------------------|
E|-------------------33333333-55555555--|

PreVerse
G|--------------------------------|
D|--------------------------------| 4x
A|-------------------10-10-9--9---|
E|--777-10-10-10-555--------------|

Verse I
G|------------------------------|
D|------------------------------| 2x
A|--22----22--------------------|
E|-----22----22-33333333333333--|

Chorus
G|--------------------------------------|
D|--------------------------------------| 2x
A|--5555555555555555--------------------|
E|-------------------33333333-55555555--|

Verse II
G|------------------------------|
D|------------------------------| 2x
A|--22----22--------------------|
E|-----22----22-33333333333333--|

Chorus
G|--------------------------------------|
D|--------------------------------------| 4x
A|--5555555555555555--------------------|
E|-------------------33333333-55555555--|

Interlude
G|--------------------|
D|--------------------| 4x
A|--------------------|
E|--777-10-10-10-555--|

G|--------------------------------|
D|--------------------------------| 4x
A|-------------------10-10-9--9---|
E|--777-10-10-10-555--------------|

Bridge (Only Guitar 1)

Chorus
G|--------------------------------------|
D|--------------------------------------| 4x
A|--5555555555555555--------------------|
E|-------------------33333333-55555555--|

Ending
G|--------------------------------|
D|--------------------------------| 4x
A|-------------------10-10-9--9---|
E|--777-10-10-10-555--------------|

Salamat!