Imany - I Lost My Keys Text Guitar Tab

Learn song with the online tabulature player
I lost my keys - Imany
-------------------------------------------------------------------------------
Tabbed by: beah11

C'est mon melange des versions que j'ai trouve. J'espere que vous l'aimerez.

This is my mix of the versions I have found. Hope you will like it.

Tuning: normal
 
h = hammer


---------------------------------------------------
Chords: G Bm C G

Rythmique        : B   H H B   H H B H B H
Strumming pattern: D   U U D   U U D U D U
---------------------------------------------------

INTRO

e|------------------------------------------------------------------------------------|
B|----8----------------7----5--------------3----1----------------------0--------------|
G|----9----------------7----5--------------4----2-------------------------------------|
D|----9----------------7----5--------------4----2--------------------0----------------|
A|---------------------------------------------------------------0h2------------------|
E|-------------------------------------------------------------3-------3--------------|
                                                                  

e|-------10-------------------7-------------------3-----------------------------------|
B|----8-------8--------7----5-----5--------3----1-----1----------------0-----0---0----|
G|----9-----9-----9----7----5---5-----5----4----2---2-----2---------------------------|
D|----9---------9------7----5-------5------4----2-------2------------0-----0---0------|
A|---------------------------------------------------------------0h2-----2------------|
E|-------------------------------------------------------------3-------3-----3---3----|
                                                                 




G                Bm  
I don't trust myself
C                            G
I've been doing the same mistakes
G                             Bm
Can you help me to find a family ?
C                    G 
I am so lonely by myself
G             
I lost my keys
                     Bm      
I don't even know my own address
      C                     G
And there's nowhere I wanna be



G                 Bm
Can you help me, can you help me ?
C                      G
I've never asked for anything 
G                   Bm
Can you help me, oh can you help me ?
C                   G
Can someone help me breathe ?



G              Bm
There's nobody else
C                             G
I walk the streets under the rain
G                 Bm
Poetry in my misery 
C                       G
I lost my way, I'm homeless
G
I lost my keys
                     Bm
I don't even know my own address
     C                      G
And there's nowhere I wanna be



G                 Bm
Can you help me, can you help me ?
C                      G
I've never asked for anything 
G                   Bm
Can you help me, oh can you help me ?
C                   G
Can someone help me breathe ?



e|---------------------------------------|
B|----0---------------0------------------|
G|--------------0---0-----------0---0----|
D|----------0---------------0------------|
A|--------2-------2-------2-------2------|
E|----3---------------3------------------|

G
I went outside

e|---------------------------------------|
B|---------------------------------------|
G|----0---------0---0-0---------0---0----|
D|----------2---------------2------------|
A|--------3-------3-------3-------3------|
E|----0---------------0------------------|

C
Screamed your name

e|---------------------------------------|
B|----1---------1---1-1---------1---1----|
G|----------0---------------0------------|
D|--------2-------2-------2-------2------|
A|----3---------------3------------------|
E|---------------------------------------|

G
Real loud
e|---------------------------------------|
B|----0---------------0------------------|
G|--------------0---0-----------0---0----|
D|----------0---------------0------------|
A|--------2-------2-------2-------2------|
E|----3---------------3------------------|


G
No one came

e|---------------------------------------|
B|----0---------------0------------------|
G|--------------0---0-----------0---0----|
D|----------0---------------0------------|
A|--------2-------2-------2-------2------|
E|----3---------------3------------------|
C
I'm so afraid


e|---------------------------------------|
B|---------------------------------------|
G|----0---------0---0-0---------0---0----|
D|----------2---------------2------------|
A|--------3-------3-------3-------3------|
E|----0---------------0------------------|
G
Is this too late ?


e|---------------------------------------|
B|----1---------1---1-1---------1---1----|
G|----------0---------------0------------|
D|--------2-------2-------2-------2------|
A|----3---------------3------------------|
E|---------------------------------------|

G
Cause I need your strength

e|---------------------------------------|
B|----0---------------0------------------|
G|--------------0---0-----------0---0----|
D|----------0---------------0------------|
A|--------2-------2-------2-------2------|
E|----3---------------3------------------|



G                        Bm
Where are you? Where are you?
             C                  G                  
I need your help you're never there
G                        Bm
Where are you? Where are you?
              C
Why are you hiding ?
           G
You never care

Where are you oh



G                 Bm
Can you help me, can you help me ?
C                      G
I've never asked for anything 
G                   Bm
Can you help me, oh can you help me ?
C                   G
Can someone help me breathe ?

G


           Bm       C               
I feel so lonely, 
           G      G
I feel so lonely
                 Bm
I know that you judge me 
             C                   G       G
I need your help, why don't you love me ?
          Bm       C       G      G
one more time one more time
                       Bm
oh if you don't mind
          C            G      G
one more time one mor time
                   Bm
I said it one more time
                    C
I said it one more time
          G   
one more time...



G Bm C G 

Rythmique        : B           B
Strumming pattern: D           D


finir par Bas sur G
finish with Down on G