Immaculate Fools - Girl Text Guitar Tab

Learn song with the online tabulature player
Girl by Immaculate Fools
Tabbed by: A.N.P.

----------------------------------------------------------
This is my first tab here in UG. Hope you guys like it.
Any comments or violent reactions(if there's some ^_^), 
feel free to email me. mintstorm@yahoo.com. 
----------------------------------------------------------

Solo:

e|------------------------------------------------------------------------|
B|------------------------------------------------------------------------|
G|-----------3-3---5---7-7b9-7---------------3-3---5---7-7b9-7------------|
D|---3-3--5-------------------------3-3--5--------------------------------|
A|------------------------------------------------------------------------|
E|------------------------------------------------------------------------|

e|------------------------------------------------------------------------|
B|---6-5-3------6/8-6--5-6-5h6p5-6-------------8---8-10*--8---8-----------|
G|---------5--5--------------------7-------7/9---9----------9-------------|
D|------------------------------------------------------------------------|
A|------------------------------------------------------------------------|
E|------------------------------------------------------------------------|

e|---15-14----------------------------------------------------------------|
B|---------15----------15b17r15--15b17r15----15---17b19r17-15----15-15----|
G|------------14----14--------------------16------------------16----------|
D|------------------------------------------------------------------------|
A|------------------------------------------------------------------------|
E|------------------------------------------------------------------------|

e|---22b24--22b24r22~----22b2422-20---------------------------------------|
B|-----------------------------------22b24r22-20------20-20b22-20~--------|
G|-----------------------------------------------21-----------------------|
D|------------------------------------------------------------------------|
A|------------------------------------------------------------------------|
E|------------------------------------------------------------------------|