Immortal Technique - Caught In A Hustle Text Guitar Tab

Learn song with the online tabulature player
-------------------------------------------------------------------------------
                             Caught In a Hustle - Immortal Technique
-------------------------------------------------------------------------------
Tabbed by:Seth Donovan
Email:navonods@gmail.com

Tuning:normal

e|--0----0-----0------0----0-----0-----0-----0-----0-------------------------|
B|---5-----5----5------5-----5-----5-----6-----6-----6-----------------------|
G|5----5-----5------4----4-----4-----5-----5-----5---------------------------|
D|---------------------------------------------------------------------------|
A|---------------------------------------------------------------------------|
E|---------------------------------------------------------------------------|

e|--0-----0----0-------------------------------------------------------------|
B|---6-----6----6------------------------------------------------------------|
G|------5----5---------------------------------------------------------------|
D|5--------------------------------------------------------------------------|
A|---------------------------------------------------------------------------|
E|---------------------------------------------------------------------------|


-repeat through song



===============================================================================