Imogen Heap - Goodnight And Go Text Guitar Tab

Learn song with the online tabulature player
|**********************Goodnight and Go Intro***********************|

INTRO:

     ,   .   .        ,   .   ,        ,   .   ,        ,   .   ,
|---1-------1----|---2-------2----|---1-------1----|----------------|
|-----2-------2--|-----2-------2--|-----2-------2--|---2---1--------|
|1-------1-1-----|1-------1-1-----|1-------1-1-----|1---------------|
|----------------|----------------|----------------|----------------|
|----------------|----------------|----------------|----------------|
|----------------|----------------|----------------|----------------|

or:

     ,   .   .        ,   .   ,        ,   .   ,        ,   .   ,
|----------------|----------------|----------------|----------------|
|---6-------6----|---7-------7----|---6-------6----|----------------|
|-----6-------6--|-----6-------6--|-----6-------6--|---6---5--------|
|6-------6-6-----|6-------6-6-----|6-------6-6-----|6---------------|
|----------------|----------------|----------------|----------------|
|----------------|----------------|----------------|----------------|

If I wasn't so pathetic I would have more of the song figured out, but no one else seems 
have done anything so I've posted what I have. If someone has a good ear and some time, 
here:
http://www.youtube.com/watch?v=uz0Wm7R_jdQ
and post your results on UG!!!