In Flames - Only For The Weak Text Guitar Tab

Learn the song with the online tablature player
                       Only for the Weak - In Flames

Aight, so in lack of a good tab for this solo, I decided to do it myself. The only
thing is that I had to do this in Drop C instead of C-Standard due to my strings
not sounding good in C-Standard at all. So if ya'll want this in C-standard, feel
free to use this and change it. :) Other than that; Im quite sure this is
almost 100% right, might be some flaws here and there, and I'm not quite sure on
the descend after the scale in the solo.Though, this is only the left guitar, I
didnt do the harmonics.

d|---------------------------------------------------------------------------|
A|---------------------------------------------------------------------------|
F|---14----12-10-9-10----14----15-14h15p14-12-10----14----12-10-9-10-9h10p9--|
C|12----12------------15----15-------------------12----12--------------------|
G|---------------------------------------------------------------------------|
C|---------------------------------------------------------------------------|

d|-----------------------------------------------------------------13-15------|
A|--------------------------------------13----15-13h15p13-11-10-15------------|
F|10----------14----12-10h12p10-9-10-10----10---------------------------------|
C|---10/12-12----12-----------------------------------------------------------|
G|----------------------------------------------------------------------------|
C|----------------------------------------------------------------------------|

d|17------17-20-17------17-20----17-18-20-18p17p15---------------------------|
A|--18--18-------18--18-------18-------------------18p17p15-18p17p15---------|
F|----17-----------17------------------------------------------------17p15p14|
C|---------------------------------------------------------------------------|
G|---------------------------------------------------------------------------|
C|---------------------------------------------------------------------------|

d|13-------13-17----17-18----18-20-15-17-15h17p15-13-12-13-------13----------|
A|---10-11-------15-------17-------------------------------10-11----13-11-10-|
F|---------------------------------------------------------------------------|
C|---------------------------------------------------------------------------|
G|---------------------------------------------------------------------------|
C|---------------------------------------------------------------------------|

d|------------13-------13-17----17-18----18-20-15-17-15h17p15-13-12-13-------13|
A|/11-10---------10-11-------15-------17-------------------------------10-11---|
F|-------12-9------------------------------------------------------------------|
C|-----------------------------------------------------------------------------|
G|-----------------------------------------------------------------------------|
C|-----------------------------------------------------------------------------|

d|17----17-/20-18-17-21b(22)-----|
A|---15--------------------------|
F|-------------------------------|
C|-------------------------------|
G|-------------------------------|
C|-------------------------------|

| /   slide up
| \   slide down
| h   hammer-on
| p   pull-off
| ~   vibrato
| +   harmonic
| x   Mute note
| b   Bend
| pb  Pre-bend
| br  Bend release
| pbr Pre-bend release
| brb Bend release bend