Incubus - In The Company Of Wolves Text Guitar Tab

Learn song with the online tabulature player
-----------------------------------------------------------------------------
                         Incubus - In The Company Of Wolves
-----------------------------------------------------------------------------
Tabbed by: Arielak

Tuning: Standard


Intro
-------

C   F  C  G

Verse
------
C         F    C        G
I was lost but now I am found.
C                  F  C          G
A line was crossed, a vessel run aground.
C                F      C                  G
The boy has gone, let's grieve and let him go.
C             F           C                 G      G G/F#
He left a dog, but it's a new day don't you know?

Chorus
-------
       Em                         Am
In the company of wolves I sat in silence
Am/G          Am/F#     F
observant and afraid
       Em                               Am
He was there with the eyes like glowing embers
    Am/G             D
the man knew she was made.

Verse
------
I was lost but now I am high.
It helps to know serenity from anywhy.
Something's wrong, something's wrong, when it all remains the same.
So face the fire, come into your name.

Chorus
-------
In the company of wolves I sat in silence, observant and afraid.
He was there with the eyes like glowing embers, the man knew she was made. Ohhhhhooo..

now here's a very cool part that comes in..
e|------------------------------------------------------------|
B|------------------------------------------------------------|
G|------------------------------------------------------------|
D|-5------------3---3-----------------------------------------|
A|----6-------3---3----3--------------------------------------|
E|------------------------------------------------------------|

then the bass plays a part (mostly G) and the guitar does this:
e|------------------------------------------------------------|
B|------------------------------------------------------------|
G|------------------------------------------------------------|
D|-5------------3---3-------------------3---------------------|
A|----6-------3---3----3----------3--6------------------------|
E|------------------------------------------------------------|

later it gets more heavy with distortion and this goes on until the end


Even I can't recall how many days I have been out there
For when all those lights cease to shine,
it was a lie I think for the first time.
Infinity it falls, in feathery folds but she bites like loveless eyes,
but with her belly full she called this rite of passage,
it was the longest night of my life.

Say it was the longest night of my life.

But when the wolves' eyes ceased to shine,
I was alive I think for the first time.
Infinity enfolds then fethrey falls (??),
but she bites like loveless eyes and with her belly full,
she called this ride of passage;
it was the longest night of my life.

It was, it was, it was, it was, it was...
It was the longest night of my life...

It was, it was, it was, it was, it was, it was, it was...

E

It was, it was, it was, it was, it was, it was, it was...