India Arie - Good Man Text Guitar Tab

Learn song with the online tabulature player
Artist: India.Arie
Album: Voyage To India (Motown Records) 2002
Song: Good Man
Tabbed by witmachine@yahoo.com

I saw this song requested on the site and had to bang out a quick one.
There're already chords out there...
Includes intro, verse and chorus and bridge.
This is a simple rendition in Standard tuning (EADGBe).
The Album version is in an alternate tuning which i will post soon!


INTRO
     Bm				     F#m
e |--------------0----------2--------------------------------0-------|
B |--3-------------------------------2-----------3-------------------|
G |------4-------------------------------2---------------------------|
D |----------4-------------------------------4-----------------------|
A |--2---------------------------------------------------------------|
E |----------------------------------2-------------------------------|

     Em                              Em              Fm    
e |--------------0---------------------------0---------------2-------|
B |--------------0---------------------------0---------------2-------|
G |--------------0---------------------------0---------------2-------|
D |------------------------------------------------------------------|
A |----------2---------------------------2---------------4-----------|
E |--0-------------------------------0---------------2---------------|


VERSE
     Bm				     F#m
e |------------------------------------------------------------------|
B |--------------3---------------------------2-----------------------|
G |--------------4---------------------------2-----------------------|
D |----------4-------------------------------------------------------|
A |--2-----------------------------------4---------------------------|
E |----------------------------------2-------------------------------|
  1. I remember the first day            I met you
  2. You were a blessing             And there was no guessing
  3. Love Is So Crazy             We had a baby
  4. Thats when you told me     Should anything happen

     Em                              Em              Fm    
e |--------------0---------------------------0---------------2-------|
B |--------------0---------------------------0---------------2-------|
G |--------------0---------------------------0---------------2-------|
D |------------------------------------------------------------------|
A |----------2---------------------------2---------------4-----------|
E |--0-------------------------------0---------------2---------------|
  1.  We Were So Young
  2.  You were the one
  3.  And Said Our Vows
  4.  I can hear you now                     You told me


CHORUS
     Bm				     F#m
e |--------------7---------------------------9-----------------------|
B |--------------7---------------------------10----------------------|
G |--------------7---------------------------------------------------|
D |----------9-------------------------------------------------------|
A |--------------------------------------11--------------------------|
E |--7-------------------------------9-------------------------------|
  1. If the sun comes up And Im not home
  2. If Im not beside you Do your best to
  3. Tell the kids about me When theyre old enough to
  4. Tell them that their daddy was

     Em                              Em              Fm    
e |--------------7-------------------------7-10--7---------7-10--7---|
B |--------------8---------------------7-10------------8-10----------|
G |------------------------------------------------------------------|
D |----------9-------------------------------------------------------|
A |--7-------------------------------7-------7-------9-------9-------|
E |------------------------------------------------------------------|
  1. Be strong
  2. Carry on
  3. Understand
  4. A good man

BRIDGE (2:06)
     Em                              F#
e |----------0---2-------3-------------------------------0-----------|
B |----------0-----------------------------2-----3-------------------|
G |--------0-----------------------------3---------------------------|
D |------2-----------------------------4-----------------------------|
A |----2-----------------------------4-------------------------------|
E |--0-------------------------------2-----------2-------2-----------|

     Bm                              Bm/A
e |------------------------------------------------------------------|
B |--------------3-------------------------------3-------------------|
G |--------------4-------------------------------4-------------------|
D |----------4-------------------------------4-----------------------|
A |--2-------------------------------0-------------------------------|
E |------------------------------------------------------------------|

India Arie, one of the best!!
comment/rate...