India Arie - Video Text Guitar Tab

Learn song with the online tabulature player
-------------------------------------------------------------------------------
                             SONG NAME - Band Name
-------------------------------------------------------------------------------
Tabbed by: Jedrzej
E-mail: phil.wasag@gmail.com

Tuning: Standard

Chords(in order): G6(open E), D6add9(?), Am7

e|---7-----2-----0-0---------0-----2-----7-7-----|
B|---6-----3-----1-1---------1-----3-----6-6-----|
G|---7-----2-----0-0---------0-----2-----7-7-----|
D|---9-----2-----2-2---------2-----2-----9-9-----|
A|---7--2-----0-----------0-----2--------7-7-----|
E|0-----------------------------------0----------|
                                                               
  1  +  2  +  3  +  4  +  1  +  2  +  3  +  4  +  

then reverse