Ingram Hill - Four Letter Word Text Guitar Tab

Learn song with the online tabulature player
This is a pretty basic solo... Pretty easy to play... It sounds right playing acoustic 
electric, although i like it better on acoustic...

      e ----------------------------------------------|
      b -9b-7-5-2--------------4b-0-------------------|
      g ----------4-2-2--2-4-4------------------------|
      d ----------------------------------------------|
      a ----------------------------------------------|
      e ----------------------------------------------|


      e ----------------------------------------------|
      b -9b-7-5-2-------------------------------------|
      g ----------4-2-2--12---------------------------|
      d ----------------------------------------------|
      a ----------------------------------------------|
      e ----------------------------------------------|