Ini Kamoze - World A Reggae Text Guitar Tab

Learn song with the online tabulature player
I tabbed this from ear because I could't find a good tab for this master piece!

Here we go!
There is only 2 chords:
F# minor and E Major, and it shifts like this:

1: F# minor 2: F# minor 3: E Major 4: E Major
Strum with reggae rythm

I like the sound when you do like this:

x=dead note/muted note

|-x-9--x-9--x-7-x-7-x-|
|-x-10-x-10-x-9-x-9-x-|
|-x-11-x-11-x-9-x-9-x-|
|-x-11-x-11-x-9-x-9-x-|
|-x-9--x-9--x-7-x-7-x-|
|-x----x----x---x---x-|

If you want to solo you can make solo in F#m pentatonic:
|-5-4-2-----------------------------|
|-------5-3-2-----------------------|
|-------------4-2-1-----------------|
|-------------------4-2-------------|
|-----------------------5-3-2-------|
|-----------------------------5-3-2-|


Good luck and have fun :D