InMe - Chamber Text Guitar Tab

Learn song with the online tabulature player
InMe - Chamber
Drop-D Tuning

Note: ive tabbed this song from the live version from the Caught white butterfly album.

* - Harmonics
ph - Pinch harmonic
h - Hammer-on
p - Pull-off
/ - Slde

Intro
e|-12-/14---------------------7-------12-/14------------------------|
B|------------------------------------------------------------------|
G|-----------12---11-/6-----7---------------------------------------|
D|------------------------------------------------------------------|
A|------------------------------------------------------------------|
D|------------------------------------------------------------------|

Verse 1
e|-7*---------------------------------------------------------------|
B|----7*----7*------------------------------------------------------|
G|----------------------5*------------------------------------------|
D|-------------------------5*----5*--------------------x2-----------|
A|--------------4*------------------4*-5*---------------------------|
D|------------------------------------------------------------------|

e|------------------------------------------------------------------|
B|------------------------------------------------------------------|
G|-4~-----2~------4~-----7-6----------------------------------------|
D|---4~----------------------7~-------------------------------------|
A|----------4~------5~----------------------------------------------|
D|------------------------------------------------------------------|

e|------------------------------------------------------------------|
B|------------------------------------------------------------------|
G|-7~----2~----4~-------7-6-----------------------------------------|
D|---4~---------------------7~--------------------------------------|
A|----------4~----5~------------------------------------------------|
D|------------------------------------------------------------------|

Bridge
e|------------------------------------------------------------------|
B|------------------------------------------------------------------|
G|----------------------------------6-------------------------------|
D|-----4/6--------6/7---------7-------------------------------------|
A|---0----------4-----------5---5-----------------------------------|
D|-0----------4-----------5-------5---------------------------------|

Verse 2
e|-7*---------------------------------------------------------------|
B|----7*----7*------------------------------------------------------|
G|----------------------5*------------------------------------------|
D|-------------------------5*----5*---------------------------------|
A|--------------4*------------------4*-5*---------------------------|
D|------------------------------------------------------------------|

e|------------------------------------------------------------------|
B|------------------------------------------------------------------|
G|-7~----2~----4~-------7-6-----------------------------------------|
D|---4~---------------------7~--------------------------------------|
A|----------4~----5~------------------------------------------------|
D|------------------------------------------------------------------|

Bridge
e|------------------------------------------------------------------|
B|------------------------------------------------------------------|
G|----------------------------------6-------------------------------|
D|-----4/6--------6/7---------7------------xxxx--xxxx--/------------|
A|---0----------4-----------5---5----------xxxx--xxxx--/------------|
D|-0----------4-----------5-------5--------xxxx--xxxx--/------------|

Chorus
e|-----------------------------------------------------------------|
B|-----------------------------------------------------------------| 
G|-------------------6ph-------------------------------------------|
D|--0-----4----5---------------------------------------------------|
A|--0-----4----5---------------------------------------------------|
D|--0-----4----5---------------------------------------------------|

e|-----------------------------------------------------------------|
B|-----------------------------------------------------------------| 
G|-----------------------------------------------------------------| 
D|--0-----4----5---------------------------------------------------| 
A|--0-----4----5---------------------------------------------------|
D|--0-----4----5---------------------------------------------------|

Solo
e|------------------------------------------------------------------------|
B|--------------0---------------------------------------------------------|
G|1h2p1----x6---2--0------------------------------------------------------|
D|------2------------4ph--00-2p0-4p0-5p0-4p0-5p0-7p0-5p0-7p0-9p0-7p0-9p0--|
A|------------------------------------------------------------------------|
D|------------------------------------------------------------------------|

e|-----------------------------------------------------------------|
B|-----------------------------------------------------------------|
G|-----------------------------------------------------------------|
D|-11-12-14-12-11--7-----11-12-14-16-14--7----12-14-16-14-12--7----|
A|--0--0--0--0--0--0------0--0--0--0--0--0-----0--0--0--0--0--0----|
D|-----------------------------------------------------------------|

e|-----------------------------------------------------------------|
B|-----------------------------------------------------------------|
G|-----------------------------------------------------------------|
D|-7777-xx-7777-xx-7777--------------------------------------------|
A|-5555-xx-5555-xx-5555--------------------------------------------|
D|-5555-xx-5555-xx-5555--------------------------------------------|

Verse
e|-7*---------------------------------------------------------------|
B|----7*----7*------------------------------------------------------|
G|----------------------5*------------------------------------------|
D|-------------------------5*----5*--------------------x2-----------|
A|--------------4*------------------4*-5*---------------------------|
D|------------------------------------------------------------------|

e|------------------------------------------------------------------|
B|------------------------------------------------------------------|
G|-4~-----2~------4~-----7-6--------------------5*------------------|
D|---4~----------------------7-///---------5*-------5*--------------|
A|----------4~------5~----------------------------------------------|
D|------------------------------------------------------------------|

Chorus x2
e|-----------------------------------------------------------------|
B|-----------------------------------------------------------------| 
G|-------------------6ph-------------------------------------------|
D|--0-----4----5---------------------------------------------------|
A|--0-----4----5---------------------------------------------------|
D|--0-----4----5---------------------------------------------------|

e|-----------------------------------------------------------------|
B|-----------------------------------------------------------------| 
G|-----------------------------------------------------------------| 
D|--0-----4----5---------------------------------------------------| 
A|--0-----4----5---------------------------------------------------|
D|--0-----4----5---------------------------------------------------|

End
e|-7*----------------------------12-/14-----------------------------|
B|----7*----7*------------------------------------------------------|
G|----------------------5*------------------------------------------|
D|-------------------------5*---------------------------------------|
A|--------------4*--------------------------------------------------|
D|------------------------------------------------------------------|