Insite - Renacer Text Guitar Tab

Learn song with the online tabulature player
-------------------------------------------------------------------------------
                             Renacer - Insite
-------------------------------------------------------------------------------
Tabbed by:iago
Email:chagoaz@hotmail.com

Tuning: standard

Intro                          
e|------------------------|
B|------------------------|
G|--6---5--6--5--6--5-----|
D|--6---6--6--6--6--6-----|
A|--4---3--4--3--4--3-----|
E|------------------------|

Chorus
e|--------------------------|
B|--------------------------|
G|--6---5--3----5--6--3-----|
D|--6---6--4----6--6--4-----|
A|--4---3--1----3--4--1-----|
E|--------------------------|

Chorus (weird rhythm)                Bm
e|--------------------------------|
B|--------------------------------|
G|--6---5--3--3----5--6--3--3-----|
D|--6---6--3--4----6--6--3--4-----|
A|--4---3--1--1----3--4--1--1-----|
E|--------------------------------|
it's easy, here are the lyrics:
with the chorus thing i'm refering to the chords you're using

       Intro
Amantes  que destruyan todo
Rescatan niños sin dormir
Y cuéntales el cuento a todos
De cuando viste el día nacer
Y junto a mi respira el aire respira vida nueva

      Chorus
Descansa en mí
Mañana empieza otra vez
Un día triste sin sentido de vivir
Confía en mi camina bien
Que no vean que sabes querer
Guarda tus alas conmigo

      Chorus
Piensa una vida y dime todo
Recorrer el mundo sin volver
Y busca estrellas caídas
Soñar despierta cuéntame todo
Sin sen posible ser feliz
Ser feliz siempre conmigo

    Chorus
Descansa en mí
Mañana empieza otra vez
Un día triste sin sentido de vivir
Confía en mi camina bien
Que no vean que sabes querer
Guarda tus alas conmigo

    Chorus (wierd rythm)
Responde dime si esta vez salve lo que algún un día dibuje
Responde dime si esta vez salve lo que algún  un día dibuje
Responde dime si estoy bien

    Chorus
Descansa en mí
Mañana empieza otra vez
Un día triste sin sentido de vivir
Y confía en mi camina bien
Que no vean que sabes querer
Guarda tus alas conmigo


hope it's ok, you can use the Bm chord also during the normal chorus. (: