Interference - Gold Text Guitar Tab

Learn song with the online tabulature player
Played by Interference with Glen Hansard, ONCE movie's soundtrack. Thanks to 
Tallie on youtube (http://www.youtube.com/watch?v=NfbS_pBCZhM).

First tab so please, be indulgent :)

Tuning OPEN E :

E -> E
A -> B
D -> E
G -> E
B -> B
E -> E

Part A :

e|--0--0--------0-0-0-0-0-0-|
B|--0--0--------0-0-0-0-0-0-|
E|--4--5--------7-2-4-4-2-0-|
E|--4--5--------7-2-4-4-2-0-|
B|--0--0--------0-0-0-0-0-0-|
E|--0--0--------0-0-0-0-0-0-|

Part B :

e|--0--0----0--0--|
B|--5--4----2--0--|
E|--0--0----0--0--|
E|--0--0----0--0--|
B|--5--4----2--0--|
E|--X--X----X--0--|

Part C :

e|--12-12-11-12-12--9-9-7-7-0-0-0--12-11-12-14-14--9-9-7-7-0-0-0--|
B|--0--0--0--0--0---0-0-0-0-9-7-0--0--0--0--0--0---0-0-0-0-9-7-0--|
E|--X--X--X--X--X---X-X-X-X-X-X-X--X--X--X--X--X---X-X-X-X-X-X-X--|
E|--X--X--X--X--X---X-X-X-X-X-X-X--X--X--X--X--X---X-X-X-X-X-X-X--|
B|--X--X--X--X--X---X-X-X-X-X-X-X--X--X--X--X--X---X-X-X-X-X-X-X--|
E|--X--X--X--X--X---X-X-X-X-X-X-X--X--X--X--X--X---X-X-X-X-X-X-X--|

You can play the other chords, but I "X" them to show that you must let the "e" 
and "B" on the 1st and 2nd string ring loudly than the other chords.

Part D : 

e|--0--0--0--0-0--0--0--0--0--|
B|--9--7--5--5-4--9--10-10-0--|
E|--0--0--0--0-0--0--0--0--0--|
E|--0--0--0--0-0--0--0--0--0--|
B|--9--7--5--5-4--9--10-0--0--|
E|--0--0--0--0-0--0--0--0--0--|

This could be played as well imo.

e|--0--0--0--0-0--0--0--0--0--|
B|--9--7--5--5-4--9--10-12-0--|
E|--0--0--0--0-0--0--0--0--0--|
E|--0--0--0--0-0--0--0--0--0--|
B|--9--7--5--5-4--9--10-12-0--|
E|--0--0--0--0-0--0--0--0--0--|

Part E : 

e|--0------0-0-0--|
B|--0------0-0-0--|
E|--0------0-0-0--|
E|--0------0-0-0--|
B|--0------3-3-3--|
E|--0------3-3-3--|

For C :

- DOWN | UP | DOWN | UP | DOWN | UP | DOWN
- 1 | 2 | 3 | 4 | 5 | 6 | 1

General 6/8 :

- DOWN | DOWN | UP | DOWN | UP | DOWN

Try to keep this pendulum all along the song, except for C of course.

Now the song (when to play the different parts above) :

A - B - B - A - C - C
A - A - B - B - B - B x 2
A - A - D - A - D - A
C - C - E - E - E - E
A - END

Lyrics :

And I love her so
I wouldn't trade her for gold
Walking on moonbeams
I was born with a silver spoon

Hell I'm gonna be me
Gonna be free
Walking on moonbeams
And staring out to sea

And if a door be closed
Then a row of homes start building
And tear your curtains down
For sunlight is like gold

Hell you better be you
Do what you can do
Walking on moonbeams
And staring out to sea

'Cause if your skin was soil
How long do you think before they'd start digging
And if your life was gold
How long do you think you'd stay living

And I love her so
I wouldn't trade her for gold