Interpol - Pace Is The Trick Text Guitar Tab

Learn song with the online tabulature player
Interpol - Pace Is The Trick
From Our Love To Admire

This is my first tab, so bear with me. I was gutted when nobody
else had tabbed this song, so I thought I'd have a go myself.
It's probably not 100% accurate and I could only work out one
guitar but it gives a good starting point if nothing else!
Another great song from a great band : Long live Interpol

e|-------------------------------------------------------------|
B|----8-8-6-6-6-----------------------5-5-5---------6-6-6-5-5--|
G|-7-7---------7-7-7-7-7-7-7-7-7---5-5-----5-5-5-5-5---------5-| x6
D|-------------------------------------------------------------|
A|-------------------------------------------------------------|
E|-------------------------------------------------------------|


e|-----5-------5--------------------|
B|-8-8---8-6-6---6-6-6-6-6-5-5-5-6--|
G|--7-7-7-7-7-7-7-7-7-7-7-7-5-5-5-5-| x2
D|----------------------------------|
A|----------------------------------|
E|----------------------------------|


e|-------------------------------------------------------------|
B|----8-8-6-6-6-----------------------5-5-5---------6-6-6-5-5--|
G|-7-7---------7-7-7-7-7-7-7-7-7---5-5-----5-5-5-5-----------5-| x4
D|-------------------------------------------------------------|
A|-------------------------------------------------------------|
E|-------------------------------------------------------------|


e|-----5-------5--------------------|
B|-8-8---8-6-6---6-6-6-6-6-5-5-5-6--|
G|--7-7-7-7-7-7-7-7-7-7-7-7-5-5-5-5-| x4
D|----------------------------------|
A|----------------------------------|
E|----------------------------------|


e|---------------------------------------------------------------|
B|----------------8-8-8-8-8-8-8-8/5---------------5-5-5-5-5-5-5--|
G|-7-7-7-7-7-7-7-7-----------------5-5-5-5-5-5-5-5-------------5-| x3
D|---------------------------------------------------------------|
A|---------------------------------------------------------------|
E|---------------------------------------------------------------|


e|-----5-------5--------------------|
B|-8-8---8-6-6---6-6-6-6-6-5-5-5-6--|
G|--7-7-7-7-7-7-7-7-7-7-7-7-5-5-5-5-| x4
D|----------------------------------|
A|----------------------------------|
E|----------------------------------|

e|-8-8-8-8-7-7-8-7-5----8--------8-----|
B|--5-5-5-5-5-5-5---6-6----6-6-6---6---|
G|-------------------7-7--7-7-5-5-5-5--| x 8 to fade
D|-------------------------------------|
A|-------------------------------------|
E|-------------------------------------|


 Outro corrected by titus04

 Enjoy!