Interpol - PDA Text Bass Tab

Learn the song with the online tablature player
Interpol - PDA

Verse
G |--------------------------------|--------------------------------|
D |--------------------------------|--------------------------------|
A |-2-2-2-2-2-2-2-2-2-2-2-25-5-5-5|-2-2-2-2-2-2-2-2-2-2-2-24-4-5-5|
D |--------------------------------|--------------------------------|

G |--------------------------------|--------------------------------|
D |--------------------------------|--------------------------------|
A |-5-------------5---5-5-5-5-5-5-5|---------------5---5-5-5-5-5-5-0|
D |---5-5-5-5-5-5------------------|-5-5-5-5-5-5-5------------------|

G |--------------------------------|--------------------------------|
D |--------------------------------|--------------------------------|
A |-2-2-2-2-2-2-2-2-2-2-2-25-5-5-5|-2-2-2-2-2-2-2-2-2-2-2-24-4-5-5|
D |--------------------------------|--------------------------------|

G |--------------------------------|-----------------------------6--|
D |--------------------------------|--------------------------------|
A |-5-------------5---5-5-5-5-5-5-5|---------------5---5-5-5-5-4---4|
D |---5-5-5-5-5-5------------------|-5-5-5-5-5-5-5------------------|

Bridge
G |--------------------------------|--------------------------------|
D |---------------------------4-4-4|-4-0-0-0-0-0-0-0-0-0-0-0-0-4-4-4|
A |-2-2---0-2-2---0-2-2-2-2--------|--------------------------------|
D |--------------------------------|--------------------------------|

G |--------------------------------|-----------------------------6--|
D |-4-4-4-5-5----------------------|--------------------------------|
A |---------------5---5-5-5-5-5-5-5|-------------------5-5-5-5-4---4|
D |-----------5-5------------------|-5-5-5-5-5-7-5-7----------------|

G |--------------------------------|--------------------------------|
D |---------------------------4-4-4|-4-0-0-0-0-0-0-0-0-0-0-0-0-4-4-4|
A |-2-2---0-2-2---0-2-2-2-2--------|--------------------------------|
D |--------------------------------|--------------------------------|

G |--------------------------------|-----------------------------8--|
D |-4-4-4-5-5----------------------|--------------------------------|
A |---------------5---5-5-5-5-5-5-5|-------------------5-5-5-5-6---6|
D |-----------5-5------------------|-5-5-5-5-5-5-7-5-7--------------|

Chorus
G |--------------------------------|--------------------------------||
D |--------------------------------|---C---C-C-C-B-----B-B-B-B-7-7-7|| C=12 B=11
A |-7-7-7-7-7-9-7-7-7-7-7-7-9-9-7--|--------------------------------||
D |--------------------------------|--------------------------------|| 2x

G |--------------------------------|--------------------------------|
D |--------------------------------|---B-B-B-B-C-B-C---B-B-B-B-7-7-7|
A |-7-7-7-7-7-9-9-9-B-B-B-B-C-C-C-C|--------------------------------|
D |--------------------------------|--------------------------------|

G |-------------9-9-9-9------------|--------------------------------|
D |--------------------------------|--------------------------------|
A |-7-7-7-7-7-7---------7-7-7-7-7-7|-2-2-2-2-2-2-2-2-6-6-6-6-6-6-6-6|
D |--------------------------------|--------------------------------|

G |--------------------------------|--------------------------------|
D |--------------------------------|--------------------------------|
A |-7-7-7-7-7-7--------------------|-2-2-2-2-2-2-2-2-6-6-6-6-6-6-6-6|
D |--------------2-2-2-2-2-2-2-2-2|--------------------------------|

G |--------------------------------|--------------------------------|
D |--------------------------------|--------------------------------|
A |-6-(stop)-----------------------|--------------------------------|
D |--------------------------------|--------------------------------|

Break
G |-G-G-G-G---G-G-G---G-G-G---G-G-G|-G-G-G-G-E-E-E-E-E-E-E-E-D-D-D-D| G=16 E=14 D=13
D |--------------------------------|--------------------------------|
A |--------------------------------|--------------------------------|
D |--------------------------------|--------------------------------|

G |-D-D-D-D---D-D-D---D-D-D---D-D-D|-D-D-D-D-E-E-E-E-E-E-G-G-G-G-G-G|
D |--------------------------------|--------------------------------|
A |--------------------------------|--------------------------------|
D |--------------------------------|--------------------------------|

G |-G-G-G-G---G-G-G---G-G-G---G-G-G|-G-G-G-G-E-E-E-E-E-E-E-E-D-D-D-|
D |--------------------------------|--------------------------------|
A |--------------------------------|--------------------------------|
D |--------------------------------|--------------------------------|

G |-8-8-8-9---9-9-9-8-8-8-9---9-9-9|-9-9-9-8---8-8-8-9-9-9-8---8-8-8|
D |--------------------------------|--------------------------------|
A |--------------------------------|--------------------------------|
D |--------------------------------|--------------------------------|

G |-8-8-8-9---9-9-9-8-8-8-9---9-9-9|-9-9-9-8---8-8-8-9-9-9----------|
D |--------------------------------|--------------------------------|
A |--------------------------------|------------------------6-7-7-7-|
D |--------------------------------|--------------------------------|

Outro A
G |--------------------------------|--------------------------------|
D |--------------------------------|--------------------------------|
A |-7-7-7-7-7-7-7-7-7-7-7-7-7-7-7-7|-----------------7-7-7-7-7-7-7-7|
D |--------------------------------|-9-9-9-9-9-9-9-9----------------|

G |--------------------------------|--------------------------------|
D |--------------------------------|--------------------------------|
A |-------------------------6-6-6-6|--------------------------------|
D |-6-6-6-6-6-6-6-6-6-6-6-6--------|-9-9-9-9-9-9-0-2-2-2-2-2-2-2-2-2|

Outro B
G |---------------8-----8-8-8-9-9-9|-9------------------------------|
D |--------------------------------|--------------------------------|
A |-7-7-7-7-7-7-7-----7------------|---------------7-7-7-7-7-7------|
D |--------------------------------|---9-9-9-9-9-9-------------9-9-9|

G |--------------------------------|--------------------------------|
D |--------------------------------|--------------------------------|
A |-------------------------6-6-6-6|--------------------------------|
D |-9-6-6-6-6-6-6-6-6-6-6-6--------|-9-9-9-9-9-9-0-2-2-2-2-2-2-2-2-2|

End
G |--------------------------------|--------------------------------|
D |--------------------------------|--------------------------------|
A |-7------------------------------|--------------------------------|
D |--------------------------------|--------------------------------|

[00:06] Verse
[00:33] Bridge
[01:01] Chorus

[01:39] Verse
[02:06] Bridge
[02:34] Chorus

[03:19] Break
[03:55] Outro A 2x
[04:23] Outro B 2x
[04:51] End