Introvoys - Will I Survive Text Guitar Tab

Learn song with the online tabulature player
introvoyz: will i survive
tab by: anterxiv@yahoo.com
notepad

MS MTL-high gain sound

solo part:

e|--17-13h17--13h17--13h17-13----------------------------------------------------|
B|----------------------------15-13-12-10-12t13-12--10-12-13-15-17-15---15-------|
G|-------------------------------------------------------------------------------|
D|-------------------------------------------------------------------------------|
A|-------------------------------------------------------------------------------|
E|-------------------------------------------------------------------------------|


    p.m.............|
e|-------------------------------------------------------------------------------|
B|-----------------------15f-15---15-14-12t14-12---------------------------------|
G|-----------14-15-17-----------------------------14-12t14-12----12s14-----------|
D|--14-15-17--------------------------------------------------14-----------------|
A|-------------------------------------------------------------------------------|
E|-------------------------------------------------------------------------------|


Legend:
	h - hammer
	f - fullbend
	s - slide
	p.m. - palm mute


ppg6'