Intwine - Way Out Text Guitar Tab

Learn song with the online tabulature player
Intro   Intwine - Way Out
Tabbed by Bouke Jilleba


e|---------------------------------------------------------|
B|---------------------------------------------------------|
G|----------------------------------4---4---4-4-4--6-6-6---|
D|-1-1---1--1----4-4-4----(x2)------4---4---4-4-4--6-6-6---|
A|-1-1---1--1----4-4-4----(x2)-----------------------------|
E|---------------------------------------------------------|


e|---------------------------------------------------------|
B|---------------------------------------------------------|
G|----------------------------------4---4---4-4-4--6-6-6---|
D|-1-1---1--1----4-4-4----(x2)------4---4---4-4-4--6-6-6---|
A|-1-1---1--1----4-4-4----(x2)-----------------------------|
E|---------------------------------------------------------|


e|---------------------------------------------------------|
B|---------------------------------------------------------|
G|----------------------------------4---4---4-4-4--6-6-6---|
D|-1-1---1--1----4-4-4----(x2)------4---4---4-4-4--6-6-6---|
A|-1-1---1--1----4-4-4----(x2)-----------------------------|
E|---------------------------------------------------------|



play throughout song