Iron And Wine - Die Text Guitar Tab

Learn song with the online tabulature player
This is short song off the Dark Was The Night compilation. The tab isn't perfect
but it works. Just listen to the song for the timing.

Intro

      G
E---------------------------------------------------|
B-0-------------------------------------------------|
G-----0------0-----0------0----0------0----0------0-|
D---0------0-----0------0----0------0----0------0---|
A-------0h2----------0h2---------0h2---------0h2----|
E-3------------3-----------3-----------3------------|

Verse

      G
E---------------------------------------------------|
B-0-------------------------------------------------|
G-----0------0-----0------0----0------0----0------0-|
D---0------0-----0------0----0------0----0------0---|
A-------0h2----------0h2---------0h2---------0h2----|
E-3------------3-----------3-----------3------------|

      C
E------0---------------0------------------------|
B-0h1----------1--0h1-----------1--1----1-----1-|
G----------0----------------0-------------------|
D----2-------2-------2--------2-------2-----0---|
A-3------3--------3------3---------3------2-----|
E-----------------------------------------------|

      Am
E------0---------------0------------------------|
B-0h1----------1--0h1-----------1--1----1-----1-|
G----------2----------------2-------------------|
D----2-------2-------2--------2-------2-----0---|
A-0------0--------0------0---------3------2-----|
E-----------------------------------------------|

      C
E------0---------------0------------------------|
B-0h1----------1--0h1-----------1--1----1-----1-|
G----------0----------------0-------------------|
D----2-------2-------2--------2-------2-----0---|
A-3------3--------3------3---------3------2-----|
E-----------------------------------------------|

      D
E-2----0---2-|
B------------|
G--------2---|
D-0--0-------|
A------------|
E------------|

Then just repeat the intro and verse. Happy playing :)