Iron And Wine - Hickory Text Guitar Tab

Learn song with the online tabulature player
This song is in Eb tuning, however, a nice way to get around that, is to put a Capo on the first fret.

Pattern 1 (relative to Capo):

e|-------3------------------0---------0--|
B|--0--------------0--1--------1---------|
G|----0--------0--------0--------0-------|
D|-----0---------0--------2--------2-----|
A|---------0h2--------0--------3---------|
E|--3------------------------------------|

Chorus

e|-----------|
B|---3-----1-|
G|-----------|
D|-----------|
A|---5-----3-|
E|-----------| Pattern 1 goes after this, then repeat the two pieces togeter again for the full chorus.

A good, and elusive, Iron and Wine song.  A live recording of it is around somewhere.