Iron And Wine - Innocent Bones Text Guitar Tab

Learn the song with the online tablature player
Intro/Verse:

E------------------------|  Repeat 8 times during intro AND verse
A-----0-----0------------|
G-------0-----0---0------|
D---------2--------------|
A---------------3--------|
D---3--------------------|

Chorus

E--------------------------------------------------------|  Repeat verse 2 times
A-----0-----0---------0-----0----------------------------| after chorus.
G-------0-----0---0-----0-----0---0----------------------|
D---------3---------------5------------------------------| Then play chorus once
A---1-----------1---3-----------3------------------------| more.
D--------------------------------------------------------|

Interlude after 2nd chorus

E------------------------------------------|  Repeat verse 2 times after interlude.
A-----0-----0---------0-----0--------------|
G-------0-----0---0-----0-----0---0--------|  Then play interlude once more.
D---------2---------------2----------------|
A---------------0---------------0----------|
D---0---------------0----------------------|

The 2nd chorus repeats 4 times instead of 2.
The 3rd chorus repeats 6 times.
Then the interlude again.
After that you just play the verse until the end of the song.

You'll have to listen to the song a couple of times to get it right, but that's pretty much it.