Iron And Wine - Sacred Vision Text Guitar Tab

Learn song with the online tabulature player
capo 5
this may not be 100% accurate, but it sounds like what he is playing
the tab does not show timing, so listen to the song for when he pauses between notes
any corrections greatly appreciated

intro
e|-------0----------------0--------------------------------------------|
B|-1----------------1--------0h1--0-----------------0--1--------0------|
G|---0-------0--------2-------------0---------0--------------0---------|
D|-----2-------0-2------2-----------------0-----0--------0h2-----------|
A|-3-------3--------0--------0--------0h2---------3----3----------0-2--|
E|--------------------------------3-----------1-----------------3------|

verse 1
e|-------0----------------0--------0-----------------------------------------|
B|-1----------------1--------0h1-----0--0-----------------0--1--------0------|
G|---0-------0--------2-------------------0---------0--------------0---------|
D|-----2-------0-2------2--------2--------------0-----0--------0h2-----------|
A|-3-------3--------0--------0--------------0h2---------3----3----------0-2--|
E|--------------------------------------3-----------1-----------------3------|

e|-------3----------------0----------------0-----------------------------------------|
B|-1----------------1--------------0---------0--0-----------------0--1--------0------|
G|---0-------0--------2--------2-------2----------0---------0--------------0---------|
D|-----2-------0-2------2--------2-------2--------------0-----0--------0h2-----------|
A|-3-------3--------0--------0-------0--------------0h2---------3----3----------0-2--|
E|----------------------------------------------3-----------1-----------------3------|

chorus 1

e|----------------------------0----------------------------------------------|
B|-------1-------1--0h1-----1-----------0-----------------0--1--------0------|
G|-0-------0------------0h2-------2-------0---------0--------------0---------|
D|---0-------0----------------------2-----------0-----0--------0h2-----------|
A|-----3-------3----0-----------0-----------0h2---------3----3----------0-2--|
E|-1-------1----------------------------3-----------1-----------------3------|

e|--------------------------0----------------------------------------------|
B|-------1-------1--1-----1-----------0-----------------0--1--------0------|
G|-0-------0----------0h2-------2-------0---------0--------------0---------|
D|---0-------0----------------2---2-----------0-----0--------0h2-----------|
A|-----3-------3----0---------------------0h2---------3----3----------0-2--|
E|-1-------1--------------------------3-----------1-----------------3------|

bridge (x2)

e|-------3----------------0----------------0-----------------------------------------|
B|-1----------------1--------------0---------0--0-----------------0--1--------0------|
G|---0-------0--------2--------2-------2----------0---------0--------------0---------|
D|-----2-------0-2------2--------2-------2--------------0-----0--------0h2-----------|
A|-3-------3--------0--------0-------0--------------0h2---------3----3----------0-2--|
E|----------------------------------------------3-----------1-----------------3------|

verse 2
e|-------3--------------------0--------0-----------------------------------------|
B|-1-------------1------1--------0h1-----0--0-----------------0--1--------0------|
G|---0-------0------------2-------------------0---------0--------------0---------|
D|-----2-------0---0-2------2--------2--------------0-----0--------0h2-----------|
A|-3-------3------------0--------0--------------0h2---------3----3----------0-2--|
E|------------------------------------------3-----------1-----------------3------|

e|-------3--------------------0--------0-----------------------------------------|
B|-1-------------1------1--------0h1-----0--0-----------------0--1--------0------|
G|---0-------0------------2-------------------0---------0--------------0---------|
D|-----2-------0---0-2------2--------2--------------0-----0--------0h2-----------|
A|-3-------3------------0--------0--------------0h2---------3----3----------0-2--|
E|------------------------------------------3-----------1-----------------3------|

chorus 2
e|----------------------0----------0---------------------------------------|
B|-------1-------1--1-----1--0h1------0-----------------0--1--------0------|
G|-0-------0----------------------------0---------0--------------0---------|
D|---0-------0--------2----------2------------0-----0--------0h2-----------|
A|-----3-------3----0--------0------------0h2---------3----3----------0-2--|
E|-1-------1--------------------------3-----------1-----------------3------|

e|--------------------------0-----------------------------------------------|
B|-------1-------1--1---------1--------0-----------------0--1--------0------|
G|-0-------0----------0-----------2-0----0---------0--------------0---------|
D|---0-------0----------0h2-----2--------------0-----0--------0h2-----------|
A|-----3-------3----0----------------------0h2---------3----3----------0-2--|
E|-1-------1---------------------------3-----------1-----------------3------|

bridge (x2)
e|-------3----------------0----------------0-----------------------------------------|
B|-1----------------1--------------0---------0--0-----------------0--1--------0------|
G|---0-------0--------2--------2-------2----------0---------0--------------0---------|
D|-----2-------0-2------2--------2-------2--------------0-----0--------0h2-----------|
A|-3-------3--------0--------0-------0--------------0h2---------3----3----------0-2--|
E|----------------------------------------------3-----------1-----------------3------|

        C                      Am
There's no way to temper your thirst
G                 F            C         G
With lasting impressions or pictures of home
        C                         Am
There's no way to grow that don't hurt
G                       F          C           G
She growled from the station then hung up the phone

        F                     Am
There's no sacred vision like her
G                 F            C        G
No eye-crushing mountain or jewelry to wear
        F                   Am
There's no granted wish I prefer
G               F           C         G
Then she to be with me, for us to be there

bridge (x2)

     C                 Am
I'd rather to be all alone
G                 F          C          G
Forgiveness is fickle when trust is a chore
     C                       Am
It's not every sin that's atoned
G                  F          C            G
I heard her speak softly then heard her no more

         C                      F
There's no sacred vision like her
       G          C            F         G
No eye-crushing mountain or jewelry to wear
         C                  F
There's no granted wish I prefer
       G          C         F         G
Then she to be with me, for us to be there

bridge (x2)