Irwansyah - My Heart Text Guitar Tab

Learn song with the online tabulature player
This song is very easy to hear and tab-it-yourself. I can't understand why the other 
are inaccurate. Even the chords are inaccurate, unless the tunings are stepped down. It 
me to find inaccurate tabs.

So heres the correct intro. It's in STANDARD TUNING.
Not sure abt the real tuning for the real song.
But it should be in standard.

e|-----0-----------|------2---0------|-----0-----------|-----------------|
B|----------3---2--|--------------3--|---------3---2---|----------0---2--|
G|-----------------|----0---0---0----|-----------------|------3----------|
D|----4---4---4----|-----------------|---4---4---4-----|----4---4---4----|
A|--2--------------|--2--------------|-2---------------|-----------------|
E|-----------------|-----------------|-----------------|--2--------------|


e|-----0-----------|------2---0------|-----0-----------|------------------2-|
B|----------3---2--|--------------3--|---------3---2---|----------0---2-----|
G|-----------------|----0---0---0----|-----------------|------3-------------|
D|----4---4---4----|-----------------|---4---4---4-----|----4---4---4---4---|
A|--2--------------|--2--------------|-2---------------|--------------------|
E|-----------------|-----------------|-----------------|--2-----------------|


Bar chords finger positionings can be used in this intro.
Have fun and happy jiwang-ing.