Isla Era - Barkada Ko Text Guitar Tab

Learn song with the online tabulature player
medyo madumi pa ito. pero pwede nang pagtiyagaan...
kung may mga suggestion kayo na mas maganda sa ginawa kong tab
e-mail nyo ako sa shap_sock@yahoo.com


Intro:

E|---------5-------10-7-5-------5-5---------|
B|-----5-7---7-5----------7-7h8-------------|\
G|---7-----------7--------------------------| \
D|------------------------------------------|  \
A|------------------------------------------|   \
E|------------------------------------------|    \ 
						  \ X2
E|---------5-------------------------------|      / 
B|-----5-7---7-5---7h8-7-5---5-------------|     /
G|---7-----------7---------7---7-7---------|    /
D|-----------------------------------------|   /
A|-----------------------------------------|  / 
E|-----------------------------------------| /

E|---5h7-7--------------------------------|
B|---5h7-7-----5-5h7-7--------------------|
G|---5h7-7-----5-5h7-7--------------------|
D|-------------5-5h7-7--------------------|
A|---------5h7----------------------------|
E|----------------------------------------|

vERSE:
D	   G 	     A
Ikaw, ako, tayo ang nagbuo
D	     G  	A
Samahan natin walang tatalo
D            G       A 
Ako matalino, ikaw bobo (joke lang)
D	       G     A	
Pag-iisip naman ay buong-buo

E|---------5-------10-7-5-------5-5---------|
B|-----5-7---7-5----------7-7h8-------------|
G|---7-----------7--------------------------|
D|------------------------------------------|
A|------------------------------------------|
E|------------------------------------------|

E|---------5-------------------------------|
B|-----5-7---7-5---7h8-7-5---5-------------|
G|---7-----------7---------7---7-7---------|
D|-----------------------------------------|
A|-----------------------------------------|
E|-----------------------------------------|


Pabili nga ng sigarilyo
Isang stick ayos na ito
Paabot na rin ng posporo
Pag-sindi pre’ fifty tayo

CHORUS:
G       A           D
Kaming lahat ay hindi patatalo
G     A     D
Sasabay kahit anong uso
G     A     D
Magkasama saan man patungo
G	  D	
Ok talaga ang barkada ko

E|---------5-------10-7-5-------5-5---------|
B|-----5-7---7-5----------7-7h8-------------|
G|---7-----------7--------------------------|
D|------------------------------------------|
A|------------------------------------------|   
E|------------------------------------------|     
						   
E|---------5-------------------------------|       
B|-----5-7---7-5---7h8-7-5---5-------------|     
G|---7-----------7---------7---7-7---------|    
D|-----------------------------------------|   
A|-----------------------------------------|   
E|-----------------------------------------| 

E|---5h7-7--------------------------------|
B|---5h7-7-----5-5h7-7--------------------|
G|---5h7-7-----5-5h7-7--------------------|
D|-------------5-5h7-7--------------------|
A|---------5h7----------------------------|
E|----------------------------------------|

Kumusta na pare ko
Gigimik na naman ba tayo
Gusto kong akyatin ang mt. apo
Tara na excited na ako

(chorus)

G	      D
Kung may problema ka
G	   D
Nandito ang barkada
G		D
Huwag kang mangangamba
G	    A
‘di ka nag-iisa

(chorus)

outro:
E|---------5-------10-7-5-------5-5---------|
B|-----5-7---7-5----------7-7h8-------------|
G|---7-----------7--------------------------|
D|------------------------------------------|
A|------------------------------------------|   
E|------------------------------------------|     
						   
E|---------5-------------------------------|       
B|-----5-7---7-5---7h8-7-5---5-------------|     
G|---7-----------7---------7---7-7---------|    
D|-----------------------------------------|   
A|-----------------------------------------|   
E|-----------------------------------------| 

E|---5h7-7--------------5------------------|
B|---5h7-7-----5-5h7-7--7------------------|
G|---5h7-7-----5-5h7-7--7------------------|
D|-------------5-5h7-7--7------------------|
A|---------5h7----------5------------------|  
E|----------------------5------------------|

kung may gusto kayong kanta na walang tab
e-mail nyo ako... gagawan ko kayo.
shap_sock@yahoo.com