Isles And Glaciers - Clush Text Guitar Tab

Learn song with the online tabulature player
Artist: Isles & Glaciers
Song: Clush
Tuning: Dropped D

Intro Riff 1:
e|------------------------||
B|------------------------||
G|----------14-13---------||
D|----14-15-------15-14---|| 8x
A|-12---------------------||
D|------------------------||
   .  .   .  .  .  .  .

Intro Riff 2:
e|-----------------------------------------------------|
B|-----------------------------------------------------|
G|-----------------------------------------------------|
D|-----10-9-7-10/12-10-9-10----10-9-7-6-7-9-9h10p9-7---|
A|-7-7-----------------------7-------------------------|
D|-----------------------------------------------------|
   . .                       .

e|---------------------------------------------------------------|
B|---------------------------------------------------------------|
G|---------------------------------------------------------------|
D|---10-9-7-10/14-10-12-10----10---10---10-7-----9---9---6-6-7---|
A|-7------------------------7----7----7--------7---7---7---------|
D|---------------------------------------------------------------|
   .                        .    .    .        .   .   .

Rhythm plays this in background:
e|-------------------|
B|-------------------|
G|-------------------|
D|-9-------7---------|
A|-7-(32x)-5-(32x)---|
D|-------------------|
   .       .

Verse 1:
Lead plays Intro Riff 1
Rhythm plays above chords.

Chorus:
e|----------------------------------------|
B|----------------------------------------|
G|----------------------------------------|
D|-7\---3-3-3-3-3-3-3-3-5-5-5-5-5-5-5-5---| 2x
A|-7\---3-3-3-3-3-3-3-3-5-5-5-5-5-5-5-5---|
D|-7\---3-3-3-3-3-3-3-3-5-5-5-5-5-5-5-5---|

e|-------------------------------------------------------------------|
B|-------------------------------------------------------------------|
G|-------------------------------------------------------------------|
D|-7-7-7-7-7-7-7-7-7-7-7-7-7-7-7-7-3-3-3-3-3-3-3-3-5-5-5-5-5-5-5-5---| 2x
A|-7-7-7-7-7-7-7-7-7-7-7-7-7-7-7-7-3-3-3-3-3-3-3-3-5-5-5-5-5-5-5-5---|
D|-7-7-7-7-7-7-7-7-7-7-7-7-7-7-7-7-3-3-3-3-3-3-3-3-5-5-5-5-5-5-5-5---|

Post-Chorus:
e|------------------------||
B|------------------------||
G|----------14-13---------||
D|----14-15-------15-14---|| 2x
A|-12---------------------||
D|------------------------||
   .  .   .  .  .  .  .

Verse 2:
Lead plays Intro Riff 2
Rhythm plays Intro Riff 1

Chorus Again, but repeat until Bridge.
Some parts the rhythm slightly changes and palm mutes.
You can figure it out, it's simple.

Haven't figured out the bridge except that Rhythm just plays clean versions of the 
chords in the background.

Chorus 3/Outro is same for Rhythm
Lead plays Intro Riff 2 without the muted 7's on A string.

End with:
e|------------------------||
B|------------------------||
G|----------14-13---------||
D|----14-15-------15-14---|| 4x
A|-12---------------------||
D|------------------------||
   .  .   .  .  .  .  .

Pretty simplistic tab of the song.
Didn't feel like literally tabbing everything, since it's most repeats.
Enjoy!
This should be pretty darn close.