Israel Kamakawiwoʻole - Somewhere Over The Rainbow What A Wonderful World Text Guitar Tab

Learn song with the online tabulature player
-------------------------------------------------------------------------------
                             Over The Rainbow
-------------------------------------------------------------------------------
Tabbed by: Shaniawolf
Email: Santuzzik@gmail.com

Tuning: Standart

I am a serious beginner and figuring out songs
by ear is a big success(if it is a success) for me,
so please, don't be harsh.
And this is the melody of the first lines of Over The Rainbow. :)


|--------------------------------------------|
|--------------------------------------------|
|--------------------------------------------|
|------10---9--5--7--9--10------7---5--------|
|--3-------------------------3---------------|
|--------------------------------------------|

|--------------------------------------------|
|--------------------------------------------|
|--------------------------------------------|
|------3---2-----------3---------------------|
|-------------3--5--7-----5--2--3--5--7--3---|
|--5-----------------------------------------|